Song name
# A B C D E F G H I J K L M N O P Q R S T U V W X Y Z

Iced Earth - In Sacred Flames tab

Iced Earth:  In Sacred Flames

transcribed by: Russ Elton (webmaster@abysslord.com)

FIND EVERY ICED EARTH SONG AND
THE MOST UPDATED VERSION OF THIS SONG AT:

                        The Frozen Palace
                  http://abysslord.com/icedearth/

Date last modified:  08/29/08
  
PLEASE DO NOT COPY THIS TAB TO ANOTHER SITE 
WITHOUT AUTHORS' PERMISSION.  THANK YOU.

Tuning: Eb

Riff 1
Guitar 1 (Acoustic)
eb|--------------------------------------|
Bb|--------------------------------------|
Gb|-----5---7---9---7---5----------------|
Db|---7---7---7---7---7---7-6--------(6)-|
Ab|-0------------------------------------|
Eb|--------------------------------------|

eb|--------------------------------------|
Bb|--------------------------------------|
Gb|-----5---7---9---7---5----------------|
Db|---7---7---7---7---7---7-6--------(6)-|
Ab|-0------------------------------------|
Eb|--------------------------------------|

Guitar 2 (Acoustic)
eb|-------------------------------------|
Bb|-------------------------------------|
Gb|----5---7---8---7---5----------------|
Db|-6----6---6---6---6---6-7--------(7)-|
Ab|-------------------------------------|
Eb|-------------------------------------|

eb|-----------------------|
Bb|-----------------------|
Gb|----5---7---8---7---5--|
Db|-6----6---6---6---6----|
Ab|-----------------------|
Eb|-----------------------|


Riff 2 (Acoustic)
eb|-------------------------|
Bb|-------------------------|
Gb|-----5---7---9---7---5---|
Db|---7---7---7---7---7---7-|
Ab|-0-----------------------|
Eb|-------------------------|

eb|-------------------------|
Bb|-------------------------|
Gb|-----5---7---8---7---5---|
Db|-6-6---6---6---6---6---6-|
Ab|-------------------------|
Eb|-------------------------|


Riff 3
Guitar 1 (Acoustic)
eb|------------------------------------------|
Bb|------------------------------------------|
Gb|------------------------------------------|
Db|-5--4-----5--4--------7--5--4--7--5--4----|
Ab|-------7--------7-------------------------|
Eb|-------------------0--------------------7-|

Guitar 2 (Acoustic, comes in later)
eb|----------------------------------------------|
Bb|----------------------------------------------|
Gb|----------------------------------------------|
Db|-9--7------9--7---------10--9--7--10--9--7----|
Ab|-------10--------10---------------------------|
Eb|---------------------0----------------------7-|

Guitar 3 (Distortion, comes in at the end)
eb|--------------|
Bb|--------------|
Gb|--------------|
Db|--------------|
Ab|-----------2--|
Eb|--[silent]-0--|
              *

Rest of the song is distortion

Riff 4
Guitar 1
eb|-------------------------|
Bb|-------------------------|
Gb|-----5---7---9---7---5---|
Db|---7---7---7---7---7---7-|
Ab|-0-----------------------|
Eb|-------------------------|
    * * * * * * * * * * * *
eb|-------------------------|
Bb|-------------------------|
Gb|-----5---7---8---7---5---|
Db|-6-6---6---6---6---6---6-|
Ab|-------------------------|
Eb|-------------------------|
    * * * * * * * * * * * *

Guitar 2 (Comes in later)
eb|--------------------------|
Bb|--------------------------|
Gb|--------------------------|
Db|---7-7-7-9-7-10-7-9-7-7-7-|
Ab|-0------------------------|
Eb|--------------------------|
    * * * * * *  * * * * * *
eb|--------------------------|
Bb|--------------------------|
Gb|--------------------------|
Db|-6-6-7-6-9-6-10-6-9-6-7-6-|
Ab|--------------------------|
Eb|--------------------------|
    * * * * * *  * * * * * *

Guitar 3
eb|--------------------------|
Bb|--------------------------|
Gb|--------------------------|
Db|--------------------------|
Ab|-7-7----7--2--6-6----6--2-|
Eb|-5-5----5--0--4-4----4--0-|
    * *    *  *  * *    *  *


Riff 5
Guitar 1
eb|------------------------------|
Bb|------------------------------|
Gb|------------------------------|
Db|------------------------------|
Ab|-10---9---7---10---9---7-0----|
Eb|----0---0---0----0---0-----0--|
     * * * * * *  * * * * * *
eb|--------------------------------|
Bb|--------------------------------|
Gb|--------------------------------|
Db|--------------------------------|
Ab|-12---10---9---12---10---9-0----|
Eb|----0----0---0----0----0-----7--|
     * *  * * * *  * *  * * * *

Guitar 2 (Comes in later)
eb|------------------------------|
Bb|------------------------------|
Gb|------------------------------|
Db|-9---7--------9---7-----------|
Ab|---------10-----------10-0----|
Eb|---0---0----0---0---0------0--|
    * * * *  * * * * * *  * *
eb|------------------------------|
Bb|------------------------------|
Gb|------------------------------|
Db|-10---9---7---10---9---7------|
Ab|-------------------------0----|
Eb|----0---0---0----0---0-----7--|
     * * * * * *  * * * * * *

Guitar 3
eb|---------------------------|
Bb|---------------------------|
Gb|---------------------------|
Db|------------4--4--------5--|
Ab|-2--------0-2--3--------2--|
Eb|-0-------------------------|


All guitars end with:
eb|-----|
Bb|-----|
Gb|-----|
Db|-----|
Ab|--2--|
Eb|--0--|


Notation:

10^        = bend a quarter step.
10b11      = bend a half step.
10b12      = bend a full step.
10b12r10   = bend and release.
[10]12     = pre-bend.
[10]12r10  = pre-bend and release.
{14}       = pick the 14th fret while holding the most 
             previous bend.
<17>       = touch the string above the 17th fret while 
             previous note(s) is(are) still ringing.

10b13*     = tremolo bar bend, from the 10th fret to the 13th fret.
7d4*       = tremolo bar dive, from the 7th fret to the 4th fret. 
12~*       = tremolo bar vibrato.

x   =  mute with fret-hand
*   =  palm mute
X\\ =  pick slide
h   =  hammer-on
p   =  pull-off
~   =  vibrato
t   =  finger tap
/   =  slide up
\   =  slide down
h.  =  natural harmonics
a   =  artificial harmonics
(9) =  ghost note
tm  =  trem picking
tr  =  trill
Tap to rate this tab
# A B C D E F G H I J K L M N O P Q R S T U V W X Y Z