Song name
# A B C D E F G H I J K L M N O P Q R S T U V W X Y Z

Iced Earth - Damien tab

Help us improve GuitareTab! Take a short survey!
#----------------------------------PLEASE NOTE---------------------------------#
#This file is the author's own work and represents their interpretation of the #
#song. You may only use this file for private study, scholarship, or research. #
#------------------------------------------------------------------------------#

DAMIEN
As recorded by Iced Earth
(From the 2001 Album HORROR SHOW)

Transcribed by Nick Thompson
	

Words and Music by Jon Schaffer
Arranged by Iced Earth

C5
x 3 5 x x x
	
F5
1 3 3 x x x
	
E5
0 2 2 x x x
	
G5
3 5 5 x x x

E5(type 2)
0 2 2 x x x

Gtr I (Eb Ab Db Gb Bb Eb) - 'Acoustic (Rythem)'
Gtr II (Eb Ab Db Gb Bb Eb) - 'Acoustic (Lead)'
Gtr III (Eb Ab Db Gb Bb Eb) - 'Distorted (Rythem)'
Gtr IV (Eb Ab Db Gb Bb Eb) - 'Distorted (Lead)'
Gtr V (Eb Ab Db Gb Bb Eb) - 'Distorted (Additional on Solo) '

 Intro
  Build Up Q=90
  N.C.
 4/4
  Gtr I
  Wx23
|---------||
|---------||
|---------||
|---------||
|---------||
|---------||


   Guitar Intro (Acoustic)
    Power Metal Q=150
    E5
    Q    E E  E E  Q      E E  E E Q     Q
||---------------------|----------------------|
||o--------------------|----------------------|
||---------------------|----------------------|
||--9----x-x--x-x--9---|--x-x--x-x-9-----9----|
||o-7----x-x--x-x--7---|--x-x--x-x-7-----7----|
||---------------------|----------------------|
|
|   Gtr II
|   E E  E E  E E  E E    E E  E E E  E  E  E
||---------------------|----------------------|
||o--------------------|-10-------------------|
||----9-11---12---11---|------12---9-11-12-11-|
||--9------9----9----9-|----9----9------------|
||o--------------------|----------------------|
||---------------------|----------------------|


  D5
  Q    E E  E E  Q      E E  E E Q     Q
|--------------------|---------------------|
|--------------------|---------------------|
|--------------------|---------------------|
|-7----x-x--x-x--7---|--x-x--x-x-7-----7---|
|-5----x-x--x-x--5---|--x-x--x-x-5-----5---|
|--------------------|---------------------|
|
| E E  E E  E E  E E    E E  E E E  E  Q
|--------------------|---------------------|
|--------------------|-10------------------|
|---9-11---12---11---|------12---9-11-12---|
|-9------9----9----9-|----9----9-----------|
|--------------------|---------------------|
|--------------------|---------------------|


  C5
  Q    E E  E E  Q      E E  E E Q     Q
|--------------------|----------------------|
|--------------------|----------------------|
|--------------------|----------------------|
|-5----x-x--x-x--5---|--x-x--x-x-5-----5----|
|-3----x-x--x-x--3---|--x-x--x-x-3-----3----|
|--------------------|----------------------|
|
| E E  E E  E E  E E    E E  E E E  E  E  E
|--------------------|----------------------|
|--------------------|-10-------------------|
|---9-11---12---11---|------12---9-11-12-11-|
|-9------9----9----9-|----9----9------------|
|--------------------|----------------------|
|--------------------|----------------------|


  B5
  Q    E E  E E  Q      E E  E E E  E  Q
|--------------------|---------------------||
|--------------------|--------------------o||
|--------------------|---------------------||
|-4----x-x--x-x--4---|--x-x--4-4-4S=5--7---||
|-2----x-x--x-x--2---|--x-x--2-2-2S=3--5--o||
|--------------------|---------------------||
|
| E E  E E  E E  E E    E E  E E E  E  Q
|--------------------|---------------------||
|--------------------|-10-----------------o||
|---9-11---12---11---|------12---9-11-12---||
|-9------9----9----9-|----9----9-----------||
|--------------------|--------------------o||
|--------------------|---------------------||


   Verse
    F5    E5                       F5        G5  F5E5
    Gtr III
    E E E Q  E E E   E E E E E E E E   +E  E E E E E E E   E E E E E E E E   3x
||-----------------|-----------------|-------------------|-------------------||
||o----------------|-----------------|-------------------|------------------o||
||-----------------|-----------------|-------------------|-------------------||
||--3---3-2--------|---------------3-|-(3)-3S5-5S3-2-----|-------------------||
||o-3---3-2--------|---------------3-|-(3)-3S5-5S3-2-----|------------------o||
||--1-0-1-0--0-0-0-|-0-0-0-0-0-0-0-1-|-(1)-1S3-3S1-0-0-0-|-0-0-0-0-0-0-0-0---||
|
|   Gtr IV
|   E E E Q  E E E   E E E E E E E E   +E  E E E E E E E   E E E E E E E E   3x
||-----------------|-----------------|-------------------|-------------------||
||o----------------|-----------------|-------------------|------------------o||
||-----------------|-----------------|-------------------|-------------------||
||--3---3-2--------|---------------3-|-(3)-3S5-5S3-2-----|-------------------||
||o-3---3-2--------|---------------3-|-(3)-3S5-5S3-2-----|------------------o||
||--1-0-1-0--0-0-0-|-0-0-0-0-0-0-0-1-|-(1)-1S3-3S1-0-0-0-|-0-0-0-0-0-0-0-0---||


   Pre-Chorus
    E5                N.C.
                                     ~~~~~~~
    E S S S S S S E E E E   E E E E  E   Q.
||------------------------|-------------------|
||o-----------------------|-------------------|
||------------------------|-------------------|
||------------------------|-------------------|
||o-2-------------2---5-7-|-8-7-5----8---7----|
||--0-0-0-0-0-0-0-0-------|-------------------|
|
|                                    ~~~~~~~
|   E S S S S S S E E E E   E E E E  E   Q.
||------------------------|-------------------|
||o-----------------------|-------------------|
||------------------------|-------------------|
||------------------------|-------------------|
||o-2-------------2---5-7-|-8-7-5---[8]-[7]---|
||--0-0-0-0-0-0-0-0-------|-------------------|


  E5                N.C.
                                         ~~~
  E S S S S S S E E E E    E   E   E  E  H
|-----------------------|-----------------------||
|-----------------------|----------------------o||
|-----------------------|-----------------------||
|-----------------------|--4---5---4------------||
|-2-------------2---5-7-|----------------8\----o||
|-0-0-0-0-0-0-0-0-------|-----------------------||
|
|                          ~~~~~~~~~~~   ~~~
| E S S S S S S E E E E    E   E   E  E  H
|-----------------------|-----------------------||
|-----------------------|----------------------o||
|-----------------------|-----------------------||
|-----------------------|-[4]-[5]-[4]-----------||
|-2-------------2---5-7-|---------------[8]----o||
|-0-0-0-0-0-0-0-0-------|-----------------------||


   Chorus
    E5
    Gtr I
    Q    E E  E E  Q      E E  E E Q     Q
||---------------------|----------------------|
||o--------------------|----------------------|
||---------------------|----------------------|
||--9----x-x--x-x--9---|--x-x--x-x-9-----9----|
||o-7----x-x--x-x--7---|--x-x--x-x-7-----7----|
||---------------------|----------------------|
|
|   Gtr II
|   E E  E E  E E  E E    E E  E E E  E  E  E
||---------------------|----------------------|
||o--------------------|-10-------------------|
||----9-11---12---11---|------12---9-11-12-11-|
||--9------9----9----9-|----9----9------------|
||o--------------------|----------------------|
||---------------------|----------------------|


  D5
  Q    E E  E E  Q      E E  E E Q     Q
|--------------------|---------------------|
|--------------------|---------------------|
|--------------------|---------------------|
|-7----x-x--x-x--7---|--x-x--x-x-7-----7---|
|-5----x-x--x-x--5---|--x-x--x-x-5-----5---|
|--------------------|---------------------|
|
| E E  E E  E E  E E    E E  E E E  E  Q
|--------------------|---------------------|
|--------------------|-10------------------|
|---9-11---12---11---|------12---9-11-12---|
|-9------9----9----9-|----9----9-----------|
|--------------------|---------------------|
|--------------------|---------------------|


  C5
  Q    E E  E E  Q      E E  E E Q     Q
|--------------------|----------------------|
|--------------------|----------------------|
|--------------------|----------------------|
|-5----x-x--x-x--5---|--x-x--x-x-5-----5----|
|-3----x-x--x-x--3---|--x-x--x-x-3-----3----|
|--------------------|----------------------|
|
| E E  E E  E E  E E    E E  E E E  E  E  E
|--------------------|----------------------|
|--------------------|-10-------------------|
|---9-11---12---11---|------12---9-11-12-11-|
|-9------9----9----9-|----9----9------------|
|--------------------|----------------------|
|--------------------|----------------------|


  B5
  Q    E E  E E  Q      E E  E E E  E  Q
|--------------------|---------------------||
|--------------------|--------------------o||
|--------------------|---------------------||
|-4----x-x--x-x--4---|--x-x--4-4-4S=5--7---||
|-2----x-x--x-x--2---|--x-x--2-2-2S=3--5--o||
|--------------------|---------------------||
|
| E E  E E  E E  E E    E E  E E E  E  Q
|--------------------|---------------------||
|--------------------|-10-----------------o||
|---9-11---12---11---|------12---9-11-12---||
|-9------9----9----9-|----9----9-----------||
|--------------------|--------------------o||
|--------------------|---------------------||


   Verse
    F5    E5                       F5        G5  F5E5
    Gtr III
    E E E Q  E E E   E E E E E E E E   +E  E E E E E E E   E E E E E E E E   3x
||-----------------|-----------------|-------------------|-------------------||
||o----------------|-----------------|-------------------|------------------o||
||-----------------|-----------------|-------------------|-------------------||
||--3---3-2--------|---------------3-|-(3)-3S5-5S3-2-----|-------------------||
||o-3---3-2--------|---------------3-|-(3)-3S5-5S3-2-----|------------------o||
||--1-0-1-0--0-0-0-|-0-0-0-0-0-0-0-1-|-(1)-1S3-3S1-0-0-0-|-0-0-0-0-0-0-0-0---||
|
|   Gtr IV
|   E E E Q  E E E   E E E E E E E E   +E  E E E E E E E   E E E E E E E E   3x
||-----------------|-----------------|-------------------|-------------------||
||o----------------|-----------------|-------------------|------------------o||
||-----------------|-----------------|-------------------|-------------------||
||--3---3-2--------|---------------3-|-(3)-3S5-5S3-2-----|-------------------||
||o-3---3-2--------|---------------3-|-(3)-3S5-5S3-2-----|------------------o||
||--1-0-1-0--0-0-0-|-0-0-0-0-0-0-0-1-|-(1)-1S3-3S1-0-0-0-|-0-0-0-0-0-0-0-0---||


   Pre-Chorus
    E5                N.C.
                                     ~~~~~~~
    E S S S S S S E E E E   E E E E  E   Q.
||------------------------|-------------------|
||o-----------------------|-------------------|
||------------------------|-------------------|
||------------------------|-------------------|
||o-2-------------2---5-7-|-8-7-5----8---7----|
||--0-0-0-0-0-0-0-0-------|-------------------|
|
|                                    ~~~~~~~
|   E S S S S S S E E E E   E E E E  E   Q.
||------------------------|-------------------|
||o-----------------------|-------------------|
||------------------------|-------------------|
||------------------------|-------------------|
||o-2-------------2---5-7-|-8-7-5---[8]-[7]---|
||--0-0-0-0-0-0-0-0-------|-------------------|


  E5                N.C.
                                         ~~~
  E S S S S S S E E E E    E   E   E  E  H
|-----------------------|-----------------------||
|-----------------------|----------------------o||
|-----------------------|-----------------------||
|-----------------------|--4---5---4------------||
|-2-------------2---5-7-|----------------8\----o||
|-0-0-0-0-0-0-0-0-------|-----------------------||
|
|                          ~~~~~~~~~~~   ~~~
| E S S S S S S E E E E    E   E   E  E  H
|-----------------------|-----------------------||
|-----------------------|----------------------o||
|-----------------------|-----------------------||
|-----------------------|-[4]-[5]-[4]-----------||
|-2-------------2---5-7-|---------------[8]----o||
|-0-0-0-0-0-0-0-0-------|-----------------------||


   Chorus
    E5
    Q    E E  E E  Q      E E  E E Q     Q
||---------------------|----------------------|
||o--------------------|----------------------|
||---------------------|----------------------|
||--9--------------9---|-----------9-----9----|
||o-7--------------7---|-----------7-----7----|
||-------0-0--0-0------|--0-0--0-0------------|
|
|   E E  E E  E E  E E    E E  E E E  E  E  E
||---------------------|----------------------|
||o--------------------|-10-------------------|
||----9-11---12---11---|------12---9-11-12-11-|
||--9------9----9----9-|----9----9------------|
||o--------------------|----------------------|
||---------------------|----------------------|


  D5
  Q    E E  E E  Q      E E  E E Q     Q
|--------------------|---------------------|
|--------------------|---------------------|
|--------------------|---------------------|
|-7--------------7---|-----------7-----7---|
|-5--------------5---|-----------5-----5---|
|------0-0--0-0------|--0-0--0-0-----------|
|
| E E  E E  E E  E E    E E  E E E  E  Q
|--------------------|---------------------|
|--------------------|-10------------------|
|---9-11---12---11---|------12---9-11-12---|
|-9------9----9----9-|----9----9-----------|
|--------------------|---------------------|
|--------------------|---------------------|


  C5
  Q    E E  E E  Q      E E  E E Q     Q
|--------------------|----------------------|
|--------------------|----------------------|
|--------------------|----------------------|
|-5--------------5---|-----------5-----5----|
|-3--------------3---|-----------3-----3----|
|------0-0--0-0------|--0-0--0-0------------|
|
| E E  E E  E E  E E    E E  E E E  E  E  E
|--------------------|----------------------|
|--------------------|-10-------------------|
|---9-11---12---11---|------12---9-11-12-11-|
|-9------9----9----9-|----9----9------------|
|--------------------|----------------------|
|--------------------|----------------------|


  B5
  Q    E E  E E  Q      E E  E E E  E  Q   3x
|--------------------|---------------------||
|--------------------|--------------------o||
|--------------------|---------------------||
|-4--------------4---|-------4-4-4S=5--7---||
|-2--------------2---|-------2-2-2S=3--5--o||
|------0-0--0-0------|--0-0----------------||
|
| E E  E E  E E  E E    E E  E E E  E  Q   3x
|--------------------|---------------------||
|--------------------|-10-----------------o||
|---9-11---12---11---|------12---9-11-12---||
|-9------9----9----9-|----9----9-----------||
|--------------------|--------------------o||
|--------------------|---------------------||


   Pre-Chorus
    E5                N.C.
                                     ~~~~~~~
    E S S S S S S E E E E   E E E E  E   Q.
||------------------------|-------------------|
||o-----------------------|-------------------|
||------------------------|-------------------|
||------------------------|-------------------|
||o-2-------------2---5-7-|-8-7-5----8---7----|
||--0-0-0-0-0-0-0-0-------|-------------------|
|
|                                    ~~~~~~~
|   E S S S S S S E E E E   E E E E  E   Q.
||------------------------|-------------------|
||o-----------------------|-------------------|
||------------------------|-------------------|
||------------------------|-------------------|
||o-2-------------2---5-7-|-8-7-5---[8]-[7]---|
||--0-0-0-0-0-0-0-0-------|-------------------|


  E5                N.C.
                                         ~~~
  E S S S S S S E E E E    E   E   E  E  H
|-----------------------|-----------------------||
|-----------------------|----------------------o||
|-----------------------|-----------------------||
|-----------------------|--4---5---4------------||
|-2-------------2---5-7-|----------------8\----o||
|-0-0-0-0-0-0-0-0-------|-----------------------||
|
|                          ~~~~~~~~~~~   ~~~
| E S S S S S S E E E E    E   E   E  E  H
|-----------------------|-----------------------||
|-----------------------|----------------------o||
|-----------------------|-----------------------||
|-----------------------|-[4]-[5]-[4]-----------||
|-2-------------2---5-7-|---------------[8]----o||
|-0-0-0-0-0-0-0-0-------|-----------------------||


 Guitar Break
  E5
                           >
  W          +W           +W           +W
|----------|------------|------------|--------||
|----------|------------|------------|--------||
|----------|------------|------------|--------||
|-2--------|-(2)--------|-(2)--------|-(2)----||
|-2--------|-(2)--------|-(2)--------|-(2)----||
|-0--------|-(0)--------|-(0)--------|-(0)----||
|
|                          >
| W          +W           +W           +W
|----------|------------|------------|--------||
|----------|------------|------------|--------||
|----------|------------|------------|--------||
|-9--------|-(9)--------|-(9)--------|-(9)----||
|-7--------|-(7)--------|-(7)--------|-(7)----||
|-0--------|-(0)--------|-(0)--------|-(0)----||


 Interlude
  Build Up Q=90
  N.C.
  Wx13
|---------||
|---------||
|---------||
|---------||
|---------||
|---------||


 Guitar Solo A
  Power Metal Q=150
  E5                                D5
  Gtr III
  Q  E E E E Q     E  E E E Q  Q     Q  E E E E Q      E  E E E Q  Q
|---------------|-----------------|----------------|------------------|
|---------------|-----------------|----------------|------------------|
|---------------|-----------------|----------------|------------------|
|-9----------9--|-----------9--9--|--7----------7--|------------7--7--|
|-7----------7--|-----------7--7--|--5----------5--|------------5--5--|
|----0-0-0-0----|--0--0-0-0-------|-----0-0-0-0----|---0--0-0-0-------|
|
| Gtr IV
| ~~~~~~~~~~~~~~~~~~~~~~~~~~~~~~~~~~~~~~~~~~~~~~~~~~~~~~~~
| W               +W                 W                +W
|---------------|-----------------|----------------|------------------|
|---------------|-----------------|----------------|------------------|
|-9-------------|-(9)-------------|-11-------------|-(11)-------------|
|---------------|-----------------|----------------|------------------|
|---------------|-----------------|----------------|------------------|
|---------------|-----------------|----------------|------------------|
|
| Gtr V
| ~~~~~~~~~~~~~~~~~~~~~~~~~~~~~~~~~~~~~
| W               +W                 W                 W
|---------------|-----------------|----------------|------------------|
|---------------|-----------------|----------------|------------------|
|-9-------------|-(9)-------------|----------------|------------------|
|---------------|-----------------|-12-------------|-(12)-------------|
|---------------|-----------------|----------------|------------------|
|---------------|-----------------|----------------|------------------|
                                                      +W


  C5
   Q  E E E E Q      E  E E E Q  Q
|----------------|------------------|
|----------------|------------------|
|----------------|------------------|
|--5----------5--|------------5--5--|
|--3----------3--|------------3--3--|
|-----0-0-0-0----|---0--0-0-0-------|
|
|  ~~~~~~~~~~~~~~~~~~~~~
|  W                +W
|----------------|------------------|
|----------------|------------------|
|-12-------------|-(12)-------------|
|----------------|------------------|
|----------------|------------------|
|----------------|------------------|
|
|  ~~~~~~~~~~~~~~~~~~~~~
|  W                +W
|----------------|------------------|
|----------------|------------------|
|----------------|------------------|
|-10-------------|-(10)-------------|
|----------------|------------------|
|----------------|------------------|


  B5
   Q   E  E  E E Q      E  E E  E  E E Q
|-------------------|-----------------------|
|-------------------|-----------------------|
|-------------------|-----------------------|
|--4-------------4--|--------4--4--4S5-7----|
|--2-------------2--|--------2--2--2S3-5----|
|------0--0--0-0----|---0--0----------------|
|
|            ~~~~~~~~~~~~~~
|  Q.     E  H         +Q    E  E  Q.     E
|-------------------|-----------------------|
|-12-----13-12------|-(12)------------------|
|-------------------|--------9-11-12-----11-|
|-------------------|-----------------------|
|-------------------|-----------------------|
|-------------------|-----------------------|
|
|            ~~~~~~~~~~~~~~
|  Q.     E  H         +Q    E  E  Q.     E
|-------------------|-----------------------|
|-------------------|-----------------------|
|-------------------|-----------------------|
|--9-----10--9------|--(9)------------------|
|-------------------|--------7--9-10------9-|
|-------------------|-----------------------|


  E5                                    D5
  Q  E E  E E Q        E E E E  Q  Q     Q  E E  E E Q     E E E E  Q  Q
|----------------|--------------------|-----------------|------------------|
|----------------|--------------------|-----------------|------------------|
|----------------|--------------------|-----------------|------------------|
|-9-----------9--|--------------9--9--|--7-----------7--|-----------7--7---|
|-7-----------7--|--------------7--7--|--5-----------5--|-----------5--5---|
|----0-0--0-0----|-----0-0-0-0--------|-----0-0--0-0----|--0-0-0-0---------|
|
| H       H         a  H        H        H       H         H        H
|----------------|--------------------|-----------------|------------------|
|----------------|--------------------|-----------------|------------------|
|-9--------------|-------------14-----|-12------11------|----------12------|
|---------9------|--9S14--------------|-----------------|-12---------------|
|----------------|--------------------|-----------------|------------------|
|----------------|--------------------|-----------------|------------------|
|
| H       H         a  H        H        H       H         H        H
|----------------|-------------17-----|-15------14------|----------15------|
|--------12------|-12S17--------------|-----------------|-15---------------|
|-9--------------|--------------------|-----------------|------------------|
|----------------|--------------------|-----------------|------------------|
|----------------|--------------------|-----------------|------------------|
|----------------|--------------------|-----------------|------------------|


  C5
   Q   E  E  E  E  Q       E  E  E  E  Q           Q
|-----------------------|-------------------------------|
|-----------------------|-------------------------------|
|-----------------------|-------------------------------|
|--5---------------5----|--------------5-----------5----|
|--3---------------3----|--------------3-----------3----|
|------0--0--0--0-------|--0--0--0--0-------------------|
|
|  Q   E  E  E  E  E  E    E  E  E  E  S  S  S  S  E  E
|-----------------------|-------------------------------|
|-----------------------|-------------------------------|
|-11--16-17-14-17-12-17-|-16-17-14-17-16-14-12-------12-|
|-----------------------|----------------------17-14----|
|-----------------------|-------------------------------|
|-----------------------|-------------------------------|
|
|  Q   E  E  E  E  E  E    E  E  E  E  S  S  S  S  E  E
|-15--19-20-17-20-15-20-|-19-20-17-20-19-17-15-------15-|
|-----------------------|----------------------19-17----|
|-----------------------|-------------------------------|
|-----------------------|-------------------------------|
|-----------------------|-------------------------------|
|-----------------------|-------------------------------|


  B5
   Q     E E  E     E Q     E  E  E  E  E  E  Q
|------------------------|-------------------------||
|------------------------|-------------------------||
|------------------------|-------------------------||
|--4------------------4--|--------4--4--4S=5--7----||
|--2------------------2--|--------2--2--2S=3--5----||
|--------0-0--0-----0----|--0--0-------------------||
|
|  H          H             E  E  E  E  E  E  E  E
|------------------------|-------------------------||
|------------------------|-------------------------||
|-11b12r=====11b13=======|===================10-12-||
|------------------------|-----------9-10-12-------||
|------------------------|--9-10-12----------------||
|------------------------|-------------------------||
|
|  H          H             E  E  E  E  E  E  E  E
|-14b15r=====14b16-------|-------------------17-19-||
|------------------------|----------17-19-20-------||
|------------------------|-16-17-19----------------||
|------------------------|-------------------------||
|------------------------|-------------------------||
|------------------------|-------------------------||


  F5     E5                           F5        G5  F5E5
   E E E Q      E E E   E E E E E E E E   +E  E E E E E E E   E E E E E E E E
|---------------------|-----------------|-------------------|-----------------|
|---------------------|-----------------|-------------------|-----------------|
|---------------------|-----------------|-------------------|-----------------|
|--3---3-2------------|---------------3-|-(3)-3S5-5S3-2-----|-----------------|
|--3---3-2------------|---------------3-|-(3)-3S5-5S3-2-----|-----------------|
|--1-0-1-0------0-0-0-|-0-0-0-0-0-0-0-1-|-(1)-1S3-3S1-0-0-0-|-0-0-0-0-0-0-0-0-|
|
|  H         E  E E E   E E E E E E E E   +E  E E E E E E E   E E E E E E E E
|-12\-----------------|-----------------|-------------------|-----------------|
|---------------------|-----------------|-------------------|-----------------|
|---------------------|-----------------|-------------------|-----------------|
|---------------------|---------------3-|-(3)-3S5-5S3-2-----|-----------------|
|---------------------|---------------3-|-(3)-3S5-5S3-2-----|-----------------|
|---------------0-0-0-|-0-0-0-0-0-0-0-1-|-(1)-1S3-3S1-0-0-0-|-0-0-0-0-0-0-0-0-|
|
|  H         H          W                  W                  W
|-24S======(12)-------|-----------------|-------------------|-----------------|
|---------------------|-----------------|-------------------|-----------------|
|---------------------|-----------------|-------------------|-----------------|
|---------------------|-----------------|-------------------|-----------------|
|---------------------|-----------------|-------------------|-----------------|
|---------------------|-----------------|-------------------|-----------------|


   Verse
    F5    E5                       F5        G5  F5E5
    E E E Q  E E E   E E E E E E E E   +E  E E E E E E E   E E E E E E E E
||-----------------|-----------------|-------------------|-------------------||
||o----------------|-----------------|-------------------|------------------o||
||-----------------|-----------------|-------------------|-------------------||
||--3---3-2--------|---------------3-|-(3)-3S5-5S3-2-----|-------------------||
||o-3---3-2--------|---------------3-|-(3)-3S5-5S3-2-----|------------------o||
||--1-0-1-0--0-0-0-|-0-0-0-0-0-0-0-1-|-(1)-1S3-3S1-0-0-0-|-0-0-0-0-0-0-0-0---||
|
|   E E E Q  E E E   E E E E E E E E   +E  E E E E E E E   E E E E E E E E
||-----------------|-----------------|-------------------|-------------------||
||o----------------|-----------------|-------------------|------------------o||
||-----------------|-----------------|-------------------|-------------------||
||--3---3-2--------|---------------3-|-(3)-3S5-5S3-2-----|-------------------||
||o-3---3-2--------|---------------3-|-(3)-3S5-5S3-2-----|------------------o||
||--1-0-1-0--0-0-0-|-0-0-0-0-0-0-0-1-|-(1)-1S3-3S1-0-0-0-|-0-0-0-0-0-0-0-0---||


   Pre-Chorus
    E5                N.C.
                                     ~~~~~~~
    E S S S S S S E E E E   E E E E  E   Q.
||------------------------|-------------------|
||o-----------------------|-------------------|
||------------------------|-------------------|
||------------------------|-------------------|
||o-2-------------2---5-7-|-8-7-5----8---7----|
||--0-0-0-0-0-0-0-0-------|-------------------|
|
|                                    ~~~~~~~
|   E S S S S S S E E E E   E E E E  E   Q.
||------------------------|-------------------|
||o-----------------------|-------------------|
||------------------------|-------------------|
||------------------------|-------------------|
||o-2-------------2---5-7-|-8-7-5---[8]-[7]---|
||--0-0-0-0-0-0-0-0-------|-------------------|


  E5                N.C.
                                         ~~~
  E S S S S S S E E E E    E   E   E  E  H
|-----------------------|-----------------------||
|-----------------------|----------------------o||
|-----------------------|-----------------------||
|-----------------------|--4---5---4------------||
|-2-------------2---5-7-|----------------8\----o||
|-0-0-0-0-0-0-0-0-------|-----------------------||
|
|                          ~~~~~~~~~~~   ~~~
| E S S S S S S E E E E    E   E   E  E  H
|-----------------------|-----------------------||
|-----------------------|----------------------o||
|-----------------------|-----------------------||
|-----------------------|-[4]-[5]-[4]-----------||
|-2-------------2---5-7-|---------------[8]----o||
|-0-0-0-0-0-0-0-0-------|-----------------------||


   Chorus
    E5
    Q    E E  E E  Q      E E  E E Q     Q
||---------------------|----------------------|
||o--------------------|----------------------|
||---------------------|----------------------|
||--9--------------9---|-----------9-----9----|
||o-7--------------7---|-----------7-----7----|
||-------0-0--0-0------|--0-0--0-0------------|
|
|   E E  E E  E E  E E    E E  E E E  E  E  E
||---------------------|----------------------|
||o--------------------|-10-------------------|
||----9-11---12---11---|------12---9-11-12-11-|
||--9------9----9----9-|----9----9------------|
||o--------------------|----------------------|
||---------------------|----------------------|


  D5
  Q    E E  E E  Q      E E  E E Q     Q
|--------------------|---------------------|
|--------------------|---------------------|
|--------------------|---------------------|
|-7--------------7---|-----------7-----7---|
|-5--------------5---|-----------5-----5---|
|------0-0--0-0------|--0-0--0-0-----------|
|
| E E  E E  E E  E E    E E  E E E  E  Q
|--------------------|---------------------|
|--------------------|-10------------------|
|---9-11---12---11---|------12---9-11-12---|
|-9------9----9----9-|----9----9-----------|
|--------------------|---------------------|
|--------------------|---------------------|


  C5
  Q    E E  E E  Q      E E  E E Q     Q
|--------------------|----------------------|
|--------------------|----------------------|
|--------------------|----------------------|
|-5--------------5---|-----------5-----5----|
|-3--------------3---|-----------3-----3----|
|------0-0--0-0------|--0-0--0-0------------|
|
| E E  E E  E E  E E    E E  E E E  E  E  E
|--------------------|----------------------|
|--------------------|-10-------------------|
|---9-11---12---11---|------12---9-11-12-11-|
|-9------9----9----9-|----9----9------------|
|--------------------|----------------------|
|--------------------|----------------------|


  B5
  Q    E E  E E  Q      E E  E E E  E  Q   3x
|--------------------|---------------------||
|--------------------|--------------------o||
|--------------------|---------------------||
|-4--------------4---|-------4-4-4S=5--7---||
|-2--------------2---|-------2-2-2S=3--5--o||
|------0-0--0-0------|--0-0----------------||
|
| E E  E E  E E  E E    E E  E E E  E  Q   3x
|--------------------|---------------------||
|--------------------|-10-----------------o||
|---9-11---12---11---|------12---9-11-12---||
|-9------9----9----9-|----9----9-----------||
|--------------------|--------------------o||
|--------------------|---------------------||


 Guitar Solo B
  F5            E5
  Gtr III
   E   E    E    Q        E    E    E
|---------------------------------------|
|---------------------------------------|
|---------------------------------------|
|--3--------3----2----------------------|
|--3--------3----2----------------------|
|--1---0----1----0--------0----0----0---|
|
| Gtr IV
|  S S S  S S S  S S  S S S  S S S  S S
|-12-0-0-12-0-0-12-0-12-0-0-12-0-0-12-0-|
|---------------------------------------|
|---------------------------------------|
|---------------------------------------|
|---------------------------------------|
|---------------------------------------|
|
| Gtr V
|  S S S  S S S  S S  S S S  S S S  S S
|-12-0-0-12-0-0-12-0-12-0-0-12-0-0-12-0-|
|---------------------------------------|
|---------------------------------------|
|---------------------------------------|
|---------------------------------------|
|---------------------------------------|


                                   F5
   E   E    E    E    E   E    E    E
|---------------------------------------|
|---------------------------------------|
|---------------------------------------|
|-----------------------------------3---|
|-----------------------------------3---|
|--0---0----0----0----0---0----0----1---|
|
|  S S S  S S S  S S  S S S  S S S  S S
|-10-0-0-10-0-0-10-0-10-0-0-10-0-0-10-0-|
|---------------------------------------|
|---------------------------------------|
|---------------------------------------|
|---------------------------------------|
|---------------------------------------|
|
|  S S S  S S S  S S  S S S  S S S  S S
|-10-0-0-10-0-0-10-0-10-0-0-10-0-0-10-0-|
|---------------------------------------|
|---------------------------------------|
|---------------------------------------|
|---------------------------------------|
|---------------------------------------|


  F5      G5      F5  E5
  E   E   E   E   E   E   E   E     E   E   E   E   E   E   E   E
|---------------------------------|---------------------------------|
|---------------------------------|---------------------------------|
|---------------------------------|---------------------------------|
|-3---3S==5---5S==3---2-----------|---------------------------------|
|-3---3S==5---5S==3---2-----------|---------------------------------|
|-1---1S==3---3S==1---0---0---0---|-0---0---0---0---0---0---0---0---|
|
| S S S S S S S S S S S S S S S S   S S S S S S S S S S S S S S S S
|-8-0-0-8-0-0-8-0-8-0-0-8-0-0-8-0-|-7-0-0-7-0-0-7-0-7-0-0-7-0-0-7-0-|
|---------------------------------|---------------------------------|
|---------------------------------|---------------------------------|
|---------------------------------|---------------------------------|
|---------------------------------|---------------------------------|
|---------------------------------|---------------------------------|
|
| S S S S S S S S S S S S S S S S   S S S S S S S S S S S S S S S S
|-8-0-0-8-0-0-8-0-8-0-0-8-0-0-8-0-|-4-0-0-4-0-0-4-0-4-0-0-4-0-0-4-0-|
|---------------------------------|---------------------------------|
|---------------------------------|---------------------------------|
|---------------------------------|---------------------------------|
|---------------------------------|---------------------------------|
|---------------------------------|---------------------------------|


  F5                E5
   E     E     E     Q           E     E     E
|-------------------------------------------------|
|-------------------------------------------------|
|-------------------------------------------------|
|--3-----------3-----2----------------------------|
|--3-----------3-----2----------------------------|
|--1-----0-----1-----0-----------0-----0-----0----|
|
|  S  S  S  S  S  S  S  S  S  S  S  S  S  S  S  S
|-------------------------------------------------|
|--9--9--9--9-10-10-10-10-13-13-13-13-12-12-12-12-|
|-------------------------------------------------|
|-------------------------------------------------|
|-------------------------------------------------|
|-------------------------------------------------|
|
|  S  S  S  S  S  S  S  S  S  S  S  S  S  S  S  S
|-------------------------------------------------|
|-------------------------------------------------|
|-10-10-10-10--9--9--9--9-14-14-14-14-13-13-13-13-|
|-------------------------------------------------|
|-------------------------------------------------|
|-------------------------------------------------|


                                            F5
   E     E     E     E     E     E     E     E
|-------------------------------------------------|
|-------------------------------------------------|
|-------------------------------------------------|
|--------------------------------------------3----|
|--------------------------------------------3----|
|--0-----0-----0-----0-----0-----0-----0-----1----|
|
|  S  S  S  S  S  S  S  S  S  S  S  S  S  S  S  S
|-------------------------------------------------|
|-15-15-15-15-13-13-13-13-12-12-12-12-13-13-13-13-|
|-------------------------------------------------|
|-------------------------------------------------|
|-------------------------------------------------|
|-------------------------------------------------|
|
|  S  S  S  S  S  S  S  S  S  S  S  S  S  S  S  S
|-------------------------------------------------|
|-------------------------------------------------|
|-16-16-16-16-14-14-14-14-13-13-13-13-14-14-14-14-|
|-------------------------------------------------|
|-------------------------------------------------|
|-------------------------------------------------|


  F5          G5      F5    E5
   E     E    E   E    E     E     E     E
|---------------------------------------------|
|---------------------------------------------|
|---------------------------------------------|
|--3-----3S===5---5S===3-----2----------------|
|--3-----3S===5---5S===3-----2----------------|
|--1-----1S===3---3S===1-----0-----0-----0----|
|
|  S  S  S  S S S S S  S  S  S  S  S  S  S  S
|---------------------------------------------|
|-10-10-10-10-9-9-9-9-13-13-13-13-12-12-12-12-|
|---------------------------------------------|
|---------------------------------------------|
|---------------------------------------------|
|---------------------------------------------|
|
|  S  S  S  S S S S S  S  S  S  S  S  S  S  S
|---------------------------------------------|
|---------------------------------------------|
|-10-10-10-10-9-9-9-9-14-14-14-14-13-13-13-13-|
|---------------------------------------------|
|---------------------------------------------|
|---------------------------------------------|


   E     E     E     E     E E E E
|----------------------------------||
|----------------------------------||
|----------------------------------||
|----------------------------------||
|----------------------------------||
|--0-----0-----0-----0-----0-0-0-0-||
|
|                          ~~
|  S  S  S  S  S  S  S  S  H
|----------------------------------||
|-13-13-13-13-15-15-15-15-17-------||
|----------------------------------||
|----------------------------------||
|----------------------------------||
|----------------------------------||
|
|                          ~~
|  S  S  S  S  S  S  S  S  H
|----------------------------------||
|----------------------------------||
|-14-14-14-14-16-16-16-16-17-------||
|----------------------------------||
|----------------------------------||
|----------------------------------||


   Outro
    F5      E5                              F5
     E E  E Q     E E E    E  E E E  E  E E E
||----------------------|---------------------|
||o---------------------|---------------------|
||----------------------|---------------------|
||---3----3-2-----------|-------------------3-|
||o--3----3-2-----------|-------------------3-|
||---1-0--1-0-----0-0-0-|--0--0-0-0--0--0-0-1-|
|
|    Q    E E +H          +H        +E  E E E
||----------------------|---------------------|
||o---------------------|---------------------|
||--10---10-9-(9)-------|-(9)-------(9)-7-7-9-|
||----------------------|---------------------|
||o---------------------|---------------------|
||----------------------|---------------------|
|
|    Q    E E +H          +H        +E  E E E
||----------------------|---------------------|
||o-10---10-9-(9)-------|-(9)-------(9)-7-7-9-|
||----------------------|---------------------|
||----------------------|---------------------|
||o---------------------|---------------------|
||----------------------|---------------------|


        G5    F5    E5
  +E  E  E  E  E    E  E E    E  E E E E E E E
|--------------------------|--------------------||
|--------------------------|-------------------o||
|--------------------------|--------------------||
|-(3)-3S=5--5S=3----2------|--------------------||
|-(3)-3S=5--5S=3----2------|-------------------o||
|-(1)-1S=3--3S=1----0--0-0-|--0--0-0-0-0-0-0-0--||
|
|           ~~~     ~~~~~~~~~~~~~
| +E  E  E  E  S  S Q.       +W
|--------------------------|--------------------||
|--------------------------|-------------------o||
|-(9)-9h10-12-10h12-9------|-(9)----------------||
|--------------------------|--------------------||
|--------------------------|-------------------o||
|--------------------------|--------------------||
|
|           ~~~     ~~~~~~~~~~~~~
| +E  E  E  E  S  S Q.       +W
|--------------------------|--------------------||
|-(9)-9h10-12-10h12-9------|-(9)---------------o||
|--------------------------|--------------------||
|--------------------------|--------------------||
|--------------------------|-------------------o||
|--------------------------|--------------------||


    F5      E5                                    F5
     E E  E  Q      E E E     E  E E E   E   E  E  E
||------------------------|--------------------------|
||o-----------------------|--------------------------|
||------------------------|--------------------------|
||---3----3--2------------|------------------------3-|
||o--3----3--2------------|------------------------3-|
||---1-0--1--0------0-0-0-|---0--0-0-0---0---0--0--1-|
|
|    Q    E  E  +H           +H         +E   E  E  E
||--13---13-12-(12)-------|-(12)-------(12)-10-10-12-|
||o-----------------------|--------------------------|
||------------------------|--------------------------|
||------------------------|--------------------------|
||o-----------------------|--------------------------|
||------------------------|--------------------------|
|
|    Q    E  E  +H           +H         +E   E  E  E
||------------------------|--------------------------|
||o-10---10--9--(9)-------|--(9)--------(9)--7--7--9-|
||--10---10--9--(9)-------|--(9)--------(9)--7--7--9-|
||------------------------|--------------------------|
||o-----------------------|--------------------------|
||------------------------|--------------------------|


          G5    F5    E5
   +E   E  E  E  E     E  E E     E  E E E E E E E  3x
|-----------------------------|---------------------||
|-----------------------------|--------------------o||
|-----------------------------|---------------------||
|--(3)--3S=5--5S=3-----2------|---------------------||
|--(3)--3S=5--5S=3-----2------|--------------------o||
|--(1)--1S=3--3S=1-----0--0-0-|---0--0-0-0-0-0-0-0--||
|
|             ~~~      ~~~~~~~~~~~~~~
|  +E   E  E  E  S  S  Q.        +W                 3x
|-(12)-12S13-15-13h15-12------|-(12)----------------||
|-----------------------------|--------------------o||
|-----------------------------|---------------------||
|-----------------------------|---------------------||
|-----------------------------|--------------------o||
|-----------------------------|---------------------||
|
|             ~~~      ~~~~~~~~~~~~~~
|  +E   E  E  E  S  S  Q.        +W                 3x
|-----------------------------|---------------------||
|--(9)--9h10-12-10h12--9------|--(9)---------------o||
|--(9)--9-10-12-10-12--9------|--(9)----------------||
|-----------------------------|---------------------||
|-----------------------------|--------------------o||
|-----------------------------|---------------------||


    F5      E5                                    F5
     E E  E  Q      E E E     E  E E E   E   E  E  E
||------------------------|--------------------------|
||o-----------------------|--------------------------|
||------------------------|--------------------------|
||---3----3--2------------|------------------------3-|
||o--3----3--2------------|------------------------3-|
||---1-0--1--0------0-0-0-|---0--0-0-0---0---0--0--1-|
|
|    Q    E  E  +H           +H         +E   E  E  E
||--13---13-12-(12)-------|-(12)-------(12)-10-10-12-|
||o-----------------------|--------------------------|
||------------------------|--------------------------|
||------------------------|--------------------------|
||o-----------------------|--------------------------|
||------------------------|--------------------------|
|
|    Q    E  E  +H           +H         +E   E  E  E
||--13---13-12-(12)-------|-(12)-------(12)-10-10-12-|
||o-10---10--9--(9)-------|--(9)--------(9)--7--7--9-|
||--10---10--9--(9)-------|--(9)--------(9)--7--7--9-|
||------------------------|--------------------------|
||o-----------------------|--------------------------|
||------------------------|--------------------------|


          G5    F5    E5
   +E   E  E  E  E     E  E E     E  E E E E E E E  4x
|-----------------------------|---------------------||
|-----------------------------|--------------------o||
|-----------------------------|---------------------||
|--(3)--3S=5--5S=3-----2------|---------------------||
|--(3)--3S=5--5S=3-----2------|--------------------o||
|--(1)--1S=3--3S=1-----0--0-0-|---0--0-0-0-0-0-0-0--||
|
|             ~~~      ~~~~~~~~~~~~~~
|  +E   E  E  E  S  S  Q.        +W                 4x
|-(12)-12S13-15-13h15-12------|-(12)----------------||
|-----------------------------|--------------------o||
|-----------------------------|---------------------||
|-----------------------------|---------------------||
|-----------------------------|--------------------o||
|-----------------------------|---------------------||
|
|             ~~~      ~~~~~~~~~~~~~~
|  +E   E  E  E  S  S  Q.        +W                 4x
|-(12)-12S13-15-13S15-12------|-(12)----------------||
|--(9)--9S10-12-10S12--9------|--(9)---------------o||
|--(9)--9S10-12-10S12--9------|--(9)----------------||
|-----------------------------|---------------------||
|-----------------------------|--------------------o||
|-----------------------------|---------------------||


  N.C.
  Wx36
|---------*|
|---------*|
|---------*|
|---------*|
|---------*|
|---------*|



Duration Legend
---------------
W - whole; H - half; Q - quarter; E - 8th; S - 16th; T - 32nd; X - 64th; a - acciaccatura
+ - note tied to previous; . - note dotted; .. - note double dotted
Uncapitalized letters represent notes that are staccato (1/2 duration)
Irregular groupings are notated above the duration line
Duration letters will always appear directly above the note/fret number it represents the
duration for.  Duration letters with no fret number below them represent rests.  Multi-
bar rests are notated in the form Wxn, where n is the number of bars to rest for.  Low
melody durations appear below the staff

Tablature Legend
----------------
 h   - hammer-on
 p   - pull-off
 b   - bend
 pb  - pre-bend
 r   - bend release (if no number after the r, then release immediately)
 /\  - slide into or out of (from/to "nowhere")
 s   - legato slide
 S   - shift slide
 - natural harmonic
[n]  - artificial harmonic
n(n) - tapped harmonic
 ~   - vibrato
 tr  - trill
 T   - tap
 TP  - trem. picking
 PM  - palm muting
\n/  - tremolo bar dip; n = amount to dip
 \n  - tremolo bar down
 n/  - tremolo bar up
/n\  - tremolo bar inverted dip
 =   - hold bend; also acts as connecting device for hammers/pulls
 <> - volume swell (louder/softer)
 x   - on rhythm slash represents muted slash
 o   - on rhythm slash represents single note slash

Misc Legend
-----------
 |  - bar
||  - double bar
||o - repeat start
o|| - repeat end
*|  - double bar (ending)
 :  - bar (freetime)
 $  - Segno
 &  - Coda
Tempo markers -  = BPM(8/16=s8/s16), where s8 = swing 8ths, s16 = swing 16ths

Related for Damien tab