Guitaretab - guitar tabs
Song name
# A B C D E F G H I J K L M N O P Q R S T U V W X Y Z

Iced Earth - Hallowed Be Thy Name tab

This is the way it's played, I've played along side the actual song, and no reason to deny this thing AGAIN!


|------------------------------------------------|
|------------------------------------------------|
|------------------------------------------------|
|-----7b8r7--7b8~------999-101010-121212-14-12~~-|
|------------------------------------------------|
|------------------------------------------------|
                         
                                 x4 
|-------------------------------|
|-------------------------------|
|-12-11-9-11-9-9-12-11-9-11-9-9-|
|-------------------------------|
|-------------------------------|
|-------------------------------|
     
|------------------------------10b12--10p7-------------|
|------------------------------------------8-----------|
|-12b14r12--12b14--12p11-9~------------------7---------|
|----------------------------------------------9-------|
|------------------------------------------------10-9~-|
|------------------------------------------------------|

|---------------------------------------------18b19~-|
|-19b20r19--19-17-19~--17-19-19b20r19--19-17---------|
|----------------------------------------------------|
|----------------------------------------------------|
|----------------------------------------------------|
|----------------------------------------------------|

|-------15-----------------------------------------------------|
|-15b16----[15]17r15-12----12------12--------------------------|
|-----------------------14----14~-----14-12-14-12-11-12-11-----|
|----------------------------------------------------------14~-|
|--------------------------------------------------------------|
|--------------------------------------------------------------|
[ Tab from: http://www.guitaretab.com/i/iced-earth/125759.html ]
|----17p14---19p14---17p14-19p14-17p14-19p14--|
|-15-------15-------15------15-----15-----15-----15-|
|---------------------------------------------------|
|---------------------------------------------------|
|---------------------------------------------------|
|---------------------------------------------------|

|-17p14-19p14--17p14-19p14--17p14-------|
|------15-----15-----15-----15-----15-15~-|
|-----------------------------------------|
|-----------------------------------------|
|-----------------------------------------|
|-----------------------------------------|

|-/12-15p12----12-------------------------------------------|
|-----------15----15p12-15p12----12-------------------------|
|-----------------------------14----14p12-14p12----12-------|
|-----------------------------------------------14----14p12-|
|-----------------------------------------------------------|
|-----------------------------------------------------------|

|----------------------------------------------------|
|----------------------------------------------------|
|---------------------------12-14b16r14--(14)p12-----|
|-14p12------------------------------------------14~-|
|-------14-12\--------12-14--------------------------|
|--------------/12-15--------------------------------|

|-10-20t12p10-19t12p10-20t12p10-19t12p10--|
|-----------------------------------------|
|-----------------------------------------|
|-----------------------------------------|
|-----------------------------------------|
|-----------------------------------------|

|-17t12p10-19t12p10-17t12p10-15t12p10-14t12p10-15t12p10-|
|--------------------------------------------------------|
|--------------------------------------------------------|
|--------------------------------------------------------|
|--------------------------------------------------------|
|--------------------------------------------------------|

|-/12-14-15-14b15r14-14b15~~-|
|----------------------------|
|----------------------------|
|----------------------------|
|----------------------------|
|----------------------------|
Related for Hallowed Be Thy Name tab