Guitaretab - guitar tabs
Song name
# A B C D E F G H I J K L M N O P Q R S T U V W X Y Z

Iced Earth - Something Wicked This Way Comes tab

Band - Iced Earth
Album - Something Wicked This Way Comes

Track Listings:
1. Burning Times
2. Melancholy (Holy Martyr)
3. Disciples Of The Lie
4. Watching Over Me
5. Stand Alone
6. Consequences
7. My Own Savior
8. Reaping Stone
9. 1776
10. Blessed Are You
11. Prophecy
12. Birth Of The Wicked
13. The Coming Curse

-------------------------------------------------

1. BURNING TIMES

Tuning: Eb

Riff 1
Guitar 1
eb|--------------------------------|
Bb|--------------------------------|
Gb|--------------------------------|
Db|--------------------------------|
Ab|-----2-----7---8---7---5---8-7~-|
Eb|-0-0-0-000---0---0---0---0------|
    * *   ***   *   *   *   *
eb|----------------------------------|
Bb|----------------------------------|
Gb|----------------------------------|
Db|----------------------------------|
Ab|-----2-----7---10----8---5---8-7~-|
Eb|-0-0-0-000---0----0----0---0------|
    * *   ***   *    *    *   *
eb|---------------------------------|
Bb|---------------------------------|
Gb|---------------------------------|
Db|---------------------------------|
Ab|-----2-----7---8---7---5---8-7---|
Eb|-0-0-0-000---0---0---0---0-----0-|
    * *   ***   *   *   *   *     *
eb|--------------------------|
Bb|--------------------------|
Gb|--------------------------|
Db|-5-5-----7---4--4---------|
Ab|-3-3-333-5-0-2--2-0-------|
Eb|--------------------3-2~~-|
        ***   *        a a

Guitar 2
eb|------------------------------------------|
Bb|------------------------------------------|
Gb|------------------------------------------|
Db|------------------------------------------|
Ab|-----2------------2------------2----------|
Eb|-0-0-0--------0-0-0--------0-0-0--------0-|
    * *          * *          * *          *
eb|--------------------------|
Bb|--------------------------|
Gb|--------------------------|
Db|-5-5-----7---4--4---------|
Ab|-3-3-333-5-0-2--2-0-------|
Eb|--------------------3-2~~-|
        ***   *        a a


Riff 1a
Guitar 1
eb|--------------------------------|
Bb|--------------------------------|
Gb|--------------------------------|
Db|--------------------------------|
Ab|-----2-----7---8---7---5---8-7~-|
Eb|-0-0-0-000---0---0---0---0------|
    * *   ***   *   *   *   *
eb|----------------------------------|
Bb|----------------------------------|
Gb|----------------------------------|
Db|----------------------------------|
Ab|-----2-----7---10----8---5---8-7~-|
Eb|-0-0-0-000---0----0----0---0------|
    * *   ***   *    *    *   *
eb|---------------------------------|
Bb|---------------------------------|
Gb|---------------------------------|
Db|---------------------------------|
Ab|-----2-----7---8---7---5---8-7---|
Eb|-0-0-0-000---0---0---0---0-----0-|
    * *   ***   *   *   *   *     *
eb|--------------------------|
Bb|--------------------------|
Gb|--------------------------|
Db|-5-5-----7---4--4---------|
Ab|-3-3-333-5-0-2--2-0-------|
Eb|--------------------3-2~~-|
        ***   *        a a

Guitar 2
eb|-------------------------------------|
Bb|-------------------------------------|
Gb|-------------------------------------|
Db|-------------------------------------|
Ab|-----2-----10---12---10---9---12-10~-|
Eb|-0-0-0-000----0----0----0---0--------|
    * *   ***    *    *    *   *
eb|-------------------------------------|
Bb|-------------------------------------|
Gb|-------------------------------------|
Db|-------------------------------------|
Ab|-----2-----10---14---12---9---12-10~-|
Eb|-0-0-0-000----0----0----0---0--------|
    * *   ***    *    *    *   *
eb|--------------------------------------|
Bb|--------------------------------------|
Gb|--------------------------------------|
Db|--------------------------------------|
Ab|-----2-----10---12---10---9---12-10---|
Eb|-0-0-0-000----0----0----0---0-------0-|
    * *   ***    *    *    *   *       *
eb|--------------------------|
Bb|--------------------------|
Gb|--------------------------|
Db|-5-5-----7---4--4---------|
Ab|-3-3-333-5-0-2--2-0-------|
Eb|--------------------3-2~~-|
        ***   *        a a


Riff 2
eb|-----------------------------|
Bb|-----------------------------|
Gb|-----------------------------|
Db|-----2-----2---0-2-2-------2-|
Ab|-----2-----2---0-2-2-------2-|
Eb|-0-0---000---0-------000-0---|
    * *   ***   *       *** *
   "Yesterday..."
eb|------------------------------|
Bb|------------------------------|
Gb|------------------------------|
Db|-----2-----2---5-----5-3--3-2-|
Ab|-----2-----2---5-----5-3--3-2-|
Eb|-0-0---000---0----0-----------|
    * *   ***   *    *

Play Riff 1a
Play Riff 2    "In this time..."

Riff 3
Guitar 1
eb|-------------------------------|
Bb|-------------------------------|
Gb|-------------------------------|
Db|-----------9--10---9---7--10-9-|
Ab|-----2-----7---8---7---5---8-7-|
Eb|-0-0-0-000---0---0---0---0-----|
    * *   ***   *   *   *   *
   "It doesn't matter..."
eb|--------------------------------|
Bb|--------------------------------|
Gb|--------------------------------|
Db|-----------9---12--10---7--10-9-|
Ab|-----2-----7---10---8---5---8-7-|
Eb|-0-0-0-000---0----0---0---0-----|
    * *   ***   *    *   *   *
eb|---------------------------------|
Bb|---------------------------------|
Gb|---------------------------------|
Db|-----------9--10---9---7--10-9---|
Ab|-----2-----7---8---7---5---8-7---|
Eb|-0-0-0-000---0---0---0---0-----0-|
    * *   ***   *   *   *   *     *
eb|--------------------------|
Bb|--------------------------|
Gb|--------------------------|
Db|-5-5-----7---4--4---------|
Ab|-3-3-333-5-0-2--2-0-------|
Eb|--------------------3-2~~-|
        ***   *        a a

Guitar 2 (Leave off last note on repeat)
eb|-----------------------------------------|
Bb|-----------------10-8~-----10b12r10------|
Gb|----9-11-12-11-9--------------------8-9~-|
Db|-/9--------------------------------------|
Ab|-----------------------------------------|
Eb|-----------------------------------------|

eb|----------------------------------------------|
Bb|-----------------10-8~----8-10-8-7~--------8~-|
Gb|----9-11-12-11-9------------------------------|
Db|-/9-------------------------------------------|
Ab|----------------------------------------------|
Eb|----------------------------------------------|

Guitar 3 (Leave off last note on repeat)
eb|------------------8-7~------8b10r8-------|
Bb|----8-10-12-10-8--------------------7-8--|
Gb|-----------------------------------------|
Db|-/9--------------------------------------|
Ab|-----------------------------------------|
Eb|-----------------------------------------|

eb|--------------------8~----8-10-8-7~----------7~-|
Bb|----8-10-12-10-8-10-----------------------------|
Gb|------------------------------------------------|
Db|-/9---------------------------------------------|
Ab|------------------------------------------------|
Eb|------------------------------------------------|




Riff 4 (Solo Rhythm)
eb|-------------------------------|
Bb|-------------------------------|
Gb|-------------------------------| -----|
Db|-------------------------5-5-5-|      |
Ab|-2-2-2-2-2-2-2-2-2-2-2-2-5-5-5-|      |
Eb|-0-0-0-0-0-0-0-0-0-0-0-0-3-3-3-|      |
      * * * * * * * * * * *              |--> Play 2x
eb|-----------------------------|        |
Bb|-----------------------------|        |
Gb|-----------------------------|        |
Db|--------------8---8---8-7--7-| -------|
Ab|-2--2-2-2-2-2-8---8---8-7--7-|
Eb|-0--0-0-0-0-0-6-0-6-0-6-5--5-|
       * * * * *   *   *
eb|-------------------------------------------|
Bb|-------------------------------------------|
Gb|-------------------------------------------|
Db|-5------7---4----5------7---4----4---------|
Ab|-3--333-5-0-2----3--333-5-0-2----2-0-------|
Eb|-------------------------------------3-2~~-|
       ***   *         ***   *          a a 

Solo
eb|-12p8--------------8-12p8-12p8--------------8-|
Bb|------10--------10-------------10--------10---|
Gb|---------9----9-------------------9----9------|
Db|-----------10-----------------------10--------|
Ab|----------------------------------------------|
Eb|----------------------------------------------|

eb|-12p8-13p8-12p8-10-8-(8)\7-7/8-/12-\7/19p0-|
Bb|-------------------------------------------|
Gb|-------------------------------------------|
Db|-------------------------------------------|
Ab|-------------------------------------------|
Eb|-------------------------------------------|

eb|-0-10-12--13-12-13/17-\13-13h15p13p12-|
Bb|--------------------------------------|
Gb|--------------------------------------|
Db|--------------------------------------|
Ab|--------------------------------------|
Eb|--------------------------------------|

eb|-------------------------------------------------|
Bb|-13/17~---17b18-17~---(17)\13-12b13r12-12--------|
Gb|------------------------------------------14-13~-|
Db|-------------------------------------------------|
Ab|-------------------------------------------------|
Eb|-------------------------------------------------|

eb|------------------------12-12-13-16p13p12-----------|
Bb|-------12---13-12-15-13------------------15p13p12---|
Gb|-14-13---14--------------------------------------14-|
Db|----------------------------------------------------|
Ab|----------------------------------------------------|
Eb|----------------------------------------------------|

eb|------------------------------|
Bb|-12h13-12h13-15p13p12---------|
Gb|----------------------14-13~~-|
Db|------------------------------|
Ab|------------------------------|
Eb|------------------------------|

(Harmony guitar plays notes in () )
eb|--/12~----1212-12-14-15-14~----(14)\-|
Bb|-(/13~----1313-13-15-17-15~)---(15)\-|
Gb|-------------------------------------|
Db|-------------------------------------|
Ab|-------------------------------------|
Eb|-------------------------------------|

eb|--/12~----12-14-12-15b17r15--14-14h15~--14h15-12~--|
Bb|-(/13~----13-15-13-17b19r17--15-15h17~--15h17-12~)-|
Gb|---------------------------------------------------|
Db|---------------------------------------------------|
Ab|---------------------------------------------------|
Eb|---------------------------------------------------|

End solo


Play Riff 2    "Question me not..."
Play Riff 3    "It doesn't matter..."


Riff 5
eb|--------------------------|
Bb|--------------------------|
Gb|--------------------------|
Db|--------------------------|
Ab|-2--2-2-2-2-2-2-2-2-2-----|
Eb|-0--0-0-0-0-0-0-0-0-0-...-|
       * * * * * * * * * 
eb|--------------------------------------|
Bb|--------------------------------------|
Gb|--------------------------------------|
Db|-5--5-7---4----5--5-7---4-------------|
Ab|-3--3-5-0-2----3--3-5-0-2----0-5-4--2-|
Eb|-------------------------------3-2--0-|

---------------------------------------------------

2. MELANCHOLY (HOLY MARTYR)

Tuning: Eb

Riff 1
Guitar 1 (12 String Acoustic)
eb|----------------------|
Bb|----------------------|
Gb|----------------------|
Db|-----9------9-7--5--4-|
Ab|---7------7-----------|
Eb|-0------0-------------|
   "Make the sadness..."
eb|----------------------------|
Bb|----------------------------|
Gb|----------------------------|
Db|---4---7--4------2---5--2---|
Ab|-5---5------5--3---3------3-|
Eb|----------------------------|


Guitar 2 (12 String Acoustic)
eb|---------------------------|
Bb|---------------------------|
Gb|---------------------------|
Db|------12-------12-10--9--7-|
Ab|---10-------10-------------|
Eb|-0--------0----------------|

eb|-------0-------------0------|
Bb|----------------------------|
Gb|----------7-------------5---|
Db|---7--------7----5--------5-|
Ab|-9---9---------7---7--------|
Eb|----------------------------|



Riff 2 (Distortion)
eb|--------------------------------------|
Bb|--------------------------------------|
Gb|--------------------------------------|
Db|----------------7-------------------7-|
Ab|------2----5-55-5---------2----5-55-5-|
Eb|-0-00-0--------------0-00-0-----------|
    * **      * **      * **      * **
   "I see the sadness..."

Lead into next section:
eb|-----|
Bb|-----|
Gb|-----|
Db|-----|
Ab|-----|
Eb|--0--|


Play Riff 1   "Make the sadness..."
Play Riff 2   "I see the sadness..."

Riff 3 (Solo Rhythm)
eb|-------------------------------|
Bb|-------------------------------|
Gb|-------------------------------|
Db|------9-------9-------9------9-|
Ab|------7-------7-------7------7-|
Eb|-0-00----0-00----0-00---0-00---|
    * **    * **    * **   * **
eb|---------------------------------|
Bb|---------------------------------|
Gb|---------------------------------|
Db|----9\7---7-------7\5---5----5/7-|
Ab|----7\5-0-5-------5\3-0-3----3/5-|
Eb|-00------------00----------------|
    **     *      **     *

Solo
eb|------------------------------------------12~-|
Bb|--------------------10-12-13-12~--10h12h13----|
Gb|-------------9-11-12--------------------------|
Db|-------7-9-10---------------------------------|
Ab|-7-9-10---------------------------------------|
Eb|----------------------------------------------|
 
eb|-13p12p10-12/19-19-20-17~-|
Bb|--------------------------|
Gb|--------------------------|
Db|--------------------------|
Ab|--------------------------|
Eb|--------------------------|

eb|-14-15-15b17r15--14h15----|
Bb|----------------------17~-|
Gb|--------------------------|
Db|--------------------------|
Ab|--------------------------|
Eb|--------------------------|
 
eb|-19p15------15-19-15-15-20-15-15-|
Bb|------17--17---------------------|
Gb|--------16-----------------------|
Db|---------------------------------|
Ab|---------------------------------|
Eb|---------------------------------|

eb|-19p15------15-19-15-15-20-15-15-|
Bb|------17--17---------------------|
Gb|--------16-----------------------|
Db|---------------------------------|
Ab|---------------------------------|
Eb|---------------------------------|

eb|-19p15------15-19-15-15-20-15-15-|
Bb|------17--17---------------------|
Gb|--------16-----------------------|
Db|---------------------------------|
Ab|---------------------------------|
Eb|---------------------------------|

eb|-20b22r20-19-20-19p17-17~----17-20-20p19-|
Bb|-----------------------------------------|
Gb|-----------------------------------------|
Db|-----------------------------------------|
Ab|-----------------------------------------|
Eb|-----------------------------------------|

eb|-17h19p17h19p17h19-15h17p15h17\14-15p14------14-|
Bb|---------------------------------------15--15---|
Gb|-----------------------------------------14-----|
Db|------------------------------------------------|
Ab|------------------------------------------------|
Eb|------------------------------------------------|

eb|-15p14-19p14-\12~-|
Bb|------------------|
Gb|------------------|
Db|------------------|
Ab|------------------|
Eb|------------------|

End solo

Play Riff 2    "I see the sadness..."


Ending solos:

Solo #1
Guitar 1
eb|-12~----/15--14h15-14----15----\14-|
Bb|-----------------------------------|
Gb|-----------------------------------|
Db|-----------------------------------|
Ab|-----------------------------------|
Eb|-----------------------------------|

eb|-12~----/15--14h15-14----15----17----19-\-|
Bb|------------------------------------------|
Gb|------------------------------------------|
Db|------------------------------------------|
Ab|------------------------------------------|
Eb|------------------------------------------|

Guitar 2
eb|-15~----/19--17h19-17----19----\17-|
Bb|-----------------------------------|
Gb|-----------------------------------|
Db|-----------------------------------|
Ab|-----------------------------------|
Eb|-----------------------------------|

eb|-15~----/19--17h19-17----19----20----22-\-|
Bb|------------------------------------------|
Gb|------------------------------------------|
Db|------------------------------------------|
Ab|------------------------------------------|
Eb|------------------------------------------|


Solo #2 (Solo #1 keeps playing)
Guitar 1
eb|-7------------------------7------------------------|
Bb|---8---8h10~--8h10p8-10-8---8---8h10~--8h10p8-10-8-|
Gb|-----9------------------------9--------------------|
Db|---------------------------------------------------|
Ab|---------------------------------------------------|
Eb|---------------------------------------------------|

eb|---------------------------------------|
Bb|-/7~----8~----10~----12-10h12p10-------|
Gb|---------------------------------12-11-|
Db|---------------------------------------|
Ab|---------------------------------------|
Eb|---------------------------------------|

Guitar 2
eb|---------------------------------------------------|
Bb|-8------------------------8------------------------|
Gb|---9---9/11~--9h11p9-11-9---9---9/11~--9h11p9-11-9-|
Db|-----9------------------------9--------------------|
Ab|---------------------------------------------------|
Eb|---------------------------------------------------|

eb|---------------------------------|
Bb|--------------7~-----8-7h8p7-----|
Gb|-/7~----9~-------------------9-7-|
Db|---------------------------------|
Ab|---------------------------------|
Eb|---------------------------------|

-----------------------------------------------------------

3. DISCIPLES OF THE LIE

Tuning: Eb

Riff 1 
Guitar 1
eb|-------------------------------|
Bb|-------------------------------|
Gb|-------------------------------|
Db|-------------------------------|
Ab|-9-----------------------------|
Eb|-7-000-000-000-000-000-000-000-|
      *** *** *** *** *** *** ***
eb|-------------------------------|
Bb|-------------------------------|
Gb|-------------------------------|
Db|-------------------------------|
Ab|-8-----------------------------|
Eb|-6-000-000-000-000-000-000-000-|
      *** *** *** *** *** *** ***
eb|-------------------------------|
Bb|-------------------------------|
Gb|-------------------------------|
Db|-------------------------------|
Ab|-7-----------------------------|
Eb|-5-000-000-000-000-000-000-000-|
      *** *** *** *** *** *** ***
eb|-------------------------------|
Bb|-------------------------------|
Gb|-------------------------------|
Db|-------------------------------|
Ab|-6-----------------------------|
Eb|-4-000-000-000-000-000-000-000-|
      *** *** *** *** *** *** ***

Final time:
eb|---------------------------|
Bb|---------------------------|
Gb|---------------------------|
Db|---------------------------|
Ab|-6-------------------------|
Eb|-4-000-000-000-000-000-000-|
      *** *** *** *** *** ***

Guitar 2
eb|-------------------------------------|
Bb|-10~~------10~~------10~~------9~~---|
Gb|-11~~------10~~-------9~~------8~~---|
Db|-------------------------------------|
Ab|-------------------------------------|
Eb|-------------------------------------|


Riff 2                              x2
eb|----------------------------------|--------0-|
Bb|----------------------------------|--------0-|
Gb|----------------------------------|----------|
Db|----------------------------------|------2---|
Ab|-5-7--8-7-------------------------|------2---|
Eb|----------000-000-000-000-000-000-|-/17\-0---|
    * *  *   *** *** *** *** *** *** 


Riff 3
eb|----------------------------------|
Bb|----------------------------------|
Gb|----------------------------------|
Db|----------------------------------|
Ab|-----5------5---------------------|
Eb|-0-0-3--0-0-3-000-3-2-1-000-3-2-1-|
    * *    * *   *** * *   *** * *


Riff 4
eb|-------------------------------|
Bb|-------------------------------|
Gb|-------------------------------|
Db|-------------------------------|
Ab|-----------------------------5-|
Eb|-000-000-000-000-000-000-0-0-3-|
    *** *** *** *** *** *** * *   
   "You abuse..."
eb|-----------------------------|
Bb|-----------------------------|
Gb|-----------------------------|
Db|-----------------------------|
Ab|-----------------------------|
Eb|-000-000-000-3-2-1-000-3-2-1-|
    *** *** *** * *   *** * *


Play Riff 1   "I've gotta do as you say..."
Play Riff 2   "...disciples of the lie..."
Play Riff 3   
Play Riff 4   "Breeding fear..."
Play Riff 1   "I've gotta do as you say..."
Play Riff 2   "...disciples of the lie..."

Interlude

Riff 5
eb|-----------------------------------------------------|
Bb|-----------------------------------------------------|
Gb|-----------------------------------------------------|
Db|-----------------------------------------------------|
Ab|-9------------8------------7------------6------------|
Eb|-7-77777777..-6-66666666..-5-55555555..-4-44444444..-|
      ********     ********     ********     ********
   "The blackness inside..."

Play Riff 1   "I've gotta do as you say..."
Play Riff 2   "I want to see you die..."

Ending
eb|-----------------|
Bb|-----------------|
Gb|-----------------|
Db|-----------------|
Ab|-----5------5--2-|
Eb|-0-0-3--0-0-3--0-|
    * *    * *    
   "Disciples of the lie!"

------------------------------------------------------------

4. WATCHING OVER ME
Tuning: Eb


Riff 1 (12 string acoustic)
Guitar 1
eb|-0----0-0--0-0-0--3----3-3--3-3-3-|
Bb|-0----0-0--0-0-0--3----3-3--3-3-3-|
Gb|-0----0-0--0-0-0--0----0-0--0-0-0-|
Db|-2----------------2---------------|
Ab|-2----------------3---------------|
Eb|-0--------------------------------|
  "I had a friend..."
eb|-3----3-3--3-3-3----------------|
Bb|-3----3-3--3-3-3----------------|
Gb|-0----0-0--0-0-0----------------|
Db|-0------------------------------|
Ab|-2----------------5--5-5-5--5---|
Eb|-3----------------2--2-2-3--2p0-|
  "...one tragic night..."

Guitar 2 (Clean)
eb|--------0-----------------------------|
Bb|------3---3---------------0-----0-----|
Gb|----0-------------------0-----0---0---|
Db|--4-------------------------4-------2-|
Ab|--------------------------------------|
Eb|--------------------------------------|

eb|--------0-----------------------------|
Bb|------3---3------------------------12-|
Gb|----0----------------------------12h.-|
Db|--4----------------------------12h.---|
Ab|-------------------------------h.-----|
Eb|--------------------------------------|

eb|--------------------------------------|
Bb|--------------------------0-----0-----|
Gb|------------------------0-----0---0---|
Db|----------------------------4-------2-|
Ab|--------------------------------------|
Eb|--------------------------------------|

eb|--------------------------------------|
Bb|------------------------3~~-----------|
Gb|--------------------------------------|
Db|--------------------------------------|
Ab|--------------------------------------|
Eb|--------------------------------------|

eb|--------0-----------------------------|
Bb|------3---3---------------0-----0-----|
Gb|----0-------------------0-----0---0---|
Db|--4-------------------------4-------2-|
Ab|--------------------------------------|
Eb|--------------------------------------|


Riff 2 (Distortion)
First time:
eb|--------------------------------------------------|
Bb|--------------------------------------------------|
Gb|--------------------------------------------------|
Db|------------------5--5----------------------------|
Ab|-------2----3-333-3--3p0--5-----5-5---5----5-5--5-|
Eb|-0-0-0-0------------------3-3-3-3-3-0-2----2-3--2-|
    * * *      * ***           * *     *
   "I feel it once again..."

Rest of the time:
eb|--------------------------------------------------|
Bb|--------------------------------------------------|
Gb|--------------------------------------------------|
Db|------------------5--5----------------------------|
Ab|-2-----2----3-333-3--3p0--5-----5-5---5----5-5--5-|
Eb|-0-0-0-0------------------3-3-3-3-3-0-2----2-3--2-|
      * *      * ***           * *     *


Riff 1 
Guitar 1 (12 string acoustic)
eb|-0----0-0--0-0-0--3----3-3--3-3-3-|
Bb|-0----0-0--0-0-0--3----3-3--3-3-3-|
Gb|-0----0-0--0-0-0--0----0-0--0-0-0-|
Db|-2----------------2---------------|
Ab|-2----------------3---------------|
Eb|-0--------------------------------|
  "We shared dreams..."
eb|-3----3-3--3-3-3----------------|
Bb|-3----3-3--3-3-3----------------|
Gb|-0----0-0--0-0-0----------------|
Db|-0------------------------------|
Ab|-2----------------5--5-5-5--5---|
Eb|-3----------------2--2-2-3--2p0-|
  "Blood brothers..."

Guitar 2 (Clean)
eb|------------------------------------|
Bb|------------------------------------|
Gb|------0-------0-------0-----0-------|
Db|----4-------4-------4---------4---2-|
Ab|------------------------------------|
Eb|------------------------------------|


Play Riff 2    "I feel it once again..."

Riff 3 (Solo Rhythm)
eb|----------------------------------|
Bb|----------------------------------|
Gb|----------------------------------|
Db|------------------5-----5-----5-2-|
Ab|-2-2-2-2-2-2-2----3-3-3-3-3-3-3-0-|
Eb|-0-0-0-0-0-0-0-00-----------------|
      * *   * *   **   * *   * *
eb|-------------------------------|
Bb|-------------------------------|
Gb|-------------------------------|
Db|-------------------------------|
Ab|-5-----5-----5----5-----5-5--5-|
Eb|-3-3-3-3-3-3-3-00-2-2-2-2-3--2-|
      * *   * *   **   * *
eb|----------------------------------|
Bb|----------------------------------|
Gb|----------------------------------|
Db|------------------5-----5-----5-2-|
Ab|-2-2-2-2-2-2-2----3-3-3-3-3-3-3-0-|
Eb|-0-0-0-0-0-0-0-00-----------------|
      * *   * *   **   * *   * *
eb|---------------------------------|
Bb|---------------------------------|
Gb|---------------------------------|
Db|---------------------------------|
Ab|-5-----5-----5----5-----5-5--5---|
Eb|-3-3-3-3-3-3-3-00-2-2-2-2-3--2-0-|
      * *   * *   **   * *        *
eb|-------------------------------------------------------|
Bb|-------------------------------------------------------|
Gb|-------------------------------------------------------|
Db|-------2--2/-------4--4\-------2-2/------4----4-4---4\-|
Ab|-3-333-3--3/-5-555-5--5\-3-333-3-3/-5-55-5-00-5-5p0-5\-|
Eb|-------------------------------------------------------|
    * ***       * ***       * ***      * **   **
eb|--------------------------|
Bb|--------------------------|
Gb|--------------------------|
Db|-------2--2/-------4--4---|
Ab|-3-333-3--3/-5-555-5--5-0-|
Eb|--------------------------|
    * ***       * ***      *
eb|---------------------------------|
Bb|---------------------------------|
Gb|---------------------------------|
Db|-4-4-4-4-4-4-4-4-4---4-5---------|
Ab|-2-2-2-2-2-2-2-2-2-2-----2-3-----|
Eb|-----------------------------2-3-|
      * * * * * * *

Solo
eb|---------------------------------------------|
Bb|---------------------------------------------|
Gb|-----------------------------------7-7-7~--9-|
Db|---------------4--(4)^-5~--7-5-7/9-----------|
Ab|-5--(5)^-7~----------------------------------|
Eb|---------------------------------------------|

eb|-----------------7---8---10-|
Bb|----7---8---10--------------|
Gb|-/7---7---7----7---7---7----|
Db|----------------------------|
Ab|----------------------------|
Eb|----------------------------|

eb|-10/12-10-12-12/14-12-14-14b15~~---(15r)14\-|
Bb|------------------------------------------~-|
Gb|--------------------------------------------|
Db|--------------------------------------------|
Ab|--------------------------------------------|
Eb|--------------------------------------------|

eb|-----------12------------------------------------------------|
Bb|-15b17~------15p12-------------------------------------------|
Gb|------------------14b16r14p12-14p12-11h12p11-------12--------|
Db|---------------------------------------------12/14----14-12~-|
Ab|-------------------------------------------------------------|
Eb|-------------------------------------------------------------|

eb|----15---17---17b19~--17b19r17-17p15-17~-|
Bb|-/15---15---15---------------------------|
Gb|-----------------------------------------|
Db|-----------------------------------------|
Ab|-----------------------------------------|
Eb|-----------------------------------------|

eb|-15-17-/19-17-19-19b20~--19b20-19-17-19-17-|
Bb|-------------------------------------------|
Gb|-------------------------------------------|
Db|-------------------------------------------|
Ab|-------------------------------------------|
Eb|-------------------------------------------|

eb|--------------------17----19-17-20-19-20/22-20h22-|
Bb|-20p19-20~----19-20----20-------------------------|
Gb|--------------------------------------------------|
Db|--------------------------------------------------|
Ab|--------------------------------------------------|
Eb|--------------------------------------------------|

eb|-22b24-22b24-22b24-22b24-22b24~----22b24~----|
Bb|---------------------------------[slow bend]-|
Gb|---------------------------------------------|
Db|---------------------------------------------|
Ab|---------------------------------------------|
Eb|---------------------------------------------|

End solo


Play Riff 2    "I feel it once again..."

Solo during Riff 2
eb|-------------------12-17-12------------|
Bb|-15b17~---------------------15---------|
Gb|-------------------------------16------|
Db|----------------------------------14~--|
Ab|---------------------------------------|
Eb|---------------------------------------|

eb|-------------------------------------------------|
Bb|-------------------------------------------------|
Gb|-12-14-12-14b16-14p12-14-14~~----11h12h11--------|
Db|------------------------------------------12-----|
Ab|---------------------------------------------12~-|
Eb|-------------------------------------------------|

End Solo


Ending harmonic lead
Guitar 1
eb|-------------------------------|
Bb|-------------------------------|
Gb|-9~----11-12-12/14--12-11--12\-|
Db|-------------------------------|
Ab|-------------------------------|
Eb|-------------------------------|

eb|-----------------------------|
Bb|-----------------------------|
Gb|-7~----9-11-11/12--11-9~--11-|
Db|-----------------------------|
Ab|-----------------------------|
Eb|-----------------------------|

Guitar 2
eb|-------------------------------|
Bb|-8~----10-12-12/13--12-10--12\-|
Gb|-------------------------------|
Db|-------------------------------|
Ab|-------------------------------|
Eb|-------------------------------|

eb|-----------------------------|
Bb|-8~----8-10-10/12--10-8~--10-|
Gb|-----------------------------|
Db|-----------------------------|
Ab|-----------------------------|
Eb|-----------------------------|

-----------------------------------------------------

5. STAND ALONE

Tuning: Eb

Riff 1
eb|------------------------------------|
Bb|------------------------------------|
Gb|------------------------------------|
Db|------------------------------------|
Ab|-2------3----3-2--------------------|
Eb|-0-0000-1-00-1-0-000-0-000-00000000-|
      ****   **     *** * *** ********
   "Listen not to..."

Final time:
eb|-----------------------------------|
Bb|-----------------------------------|
Gb|-----------------------------------|
Db|-----------------------------------|
Ab|-2------3----3-2-------------------|
Eb|-0-0000-1-00-1-0-000-0-000-0000000-|
      ****   **     *** * *** *******

Riff 2
First time:
eb|---------------------------------|
Bb|---------------------------------|
Gb|---------------------------------|
Db|---------------------------------|
Ab|-2-2-2-3---3-2-2-2-2-2-2-2-2-2-2-|
Eb|-0-0-0-1-0-1-0-0-0-0-0-0-0-0-0-0-|
    * * *   *     * * * * * * * * *
   "Father said..."

Rest of the time:
eb|---------------------------------|
Bb|---------------------------------|
Gb|---------------------------------|
Db|---------------------------------|
Ab|-2-----3---3-2-2-2-2-2-2-2-2-2-2-|
Eb|-0-0-0-1-0-1-0-0-0-0-0-0-0-0-0-0-|
      * *   *     * * * * * * * * *



Riff 3
Guitar 1
eb|----------------------------------|
Bb|----------------------------------|
Gb|----------------------------------|
Db|----------------------------------|
Ab|-2---7---7-8-7--2-----7---7-10-8--|
Eb|-0-0---0--------0-0-0---0---------|
      *   *          * *   *         
eb|----------------------------------|
Bb|----------------------------------|
Gb|----------------------------------|
Db|----------------------------------|
Ab|-2-----7---7-8-7------------------|
Eb|-0-0-0---0-------00-1-0-1-0-1-0-1-|
      * *   *       ** * * * * * * *
eb|------------------------------------|
Bb|------------------------------------|
Gb|------------------------------------|
Db|------------------------------------|
Ab|-2-----7---7-8-7--2-----7---7-10-8--|
Eb|-0-000---0--------0-0-0---0---------|
      ***   *          * *   *         
eb|----------------------------------|
Bb|----------------------------------|
Gb|----------------------------------|
Db|----------------------------------|
Ab|-2-----7---7-8-7------------------|
Eb|-0-0-0---0-------00-1-0-1-0-1-0-1-|
      * *   *       ** * * * * * * *

Guitar 2
eb|----------------------------------|
Bb|----------------------------------|
Gb|----------------------------------|
Db|----------------------------------|
Ab|-2---7---7-8-7--2-----7---7-10-8--|
Eb|-0-0---0--------0-0-0---0---------|
      *   *          * *   *         
eb|----------------------------------|
Bb|----------------------------------|
Gb|----------------------------------|
Db|----------------------------------|
Ab|-2-----7---7-8-7------------------|
Eb|-0-0-0---0-------00-1-0-1-0-1-0-1-|
      * *   *       ** * * * * * * *
eb|-----------------------------------------|
Bb|-----------------------------------------|
Gb|-----------------------------------------|
Db|-----------------------------------------|
Ab|-2-----10---10-12-10-2-----10---10-14-12-|
Eb|-0-000----0----------0-0-0----0----------|
      ***    *            * *    *         
eb|----------------------------------------|
Bb|----------------------------------------|
Gb|----------------------------------------|
Db|----------------------------------------|
Ab|-2-----10---10-12-10--------------------|
Eb|-0-0-0----0----------00-1-0-1-0-1-0-1-0-|
      * *    *          ** * * * * * * * *


Riff 2
eb|---------------------------------|
Bb|---------------------------------|
Gb|---------------------------------|
Db|---------------------------------|
Ab|-2-2-2-3---3-2-2-2-2-2-2-2-2-2-2-|
Eb|-0-0-0-1-0-1-0-0-0-0-0-0-0-0-0-0-|
    * * *   *     * * * * * * * * *
   "They only say..."              x2
eb|---------------------------------|
Bb|---------------------------------|
Gb|---------------------------------|
Db|---------------------------------|
Ab|-2-----3---3-2-2-2-2-2-2-2-2-2-2-|
Eb|-0-0-0-1-0-1-0-0-0-0-0-0-0-0-0-0-|
      * *   *     * * * * * * * * *
eb|---------------------------------|
Bb|---------------------------------|
Gb|---------------------------------|
Db|---------------------------------|
Ab|-2-----3---3-2-2-2-2-2-2-2-2-2-0-|
Eb|-0-0-0-1-0-1-0-0-0-0-0-0-0-0-0-0-|
      * *   *     * * * * * * * * *


Riff 4
eb|------------------------------------------------|
Bb|------------------------------------------------|
Gb|------------------------------------------------|
Db|-5----5-----------------------------------------|
Ab|-3----3-0-5--3--2-----3---3-2-2-2-2-2-2-2-2-2-2-|
Eb|----------3--1--0-0-0-1-0-1-0-0-0-0-0-0-0-0-0-0-|
                     * *   *     * * * * * * * * *
   "Stand alone..."
eb|---------------------------------|
Bb|---------------------------------|
Gb|---------------------------------|
Db|---------------------------------|
Ab|-2-----3---3-2-2-2-2-2-2-2-2-2-0-|
Eb|-0-0-0-1-0-1-0-0-0-0-0-0-0-0-0-0-|
      * *   *     * * * * * * * * *
eb|------------------------------------------------|
Bb|------------------------------------------------|
Gb|------------------------------------------------|
Db|-5----5-----------------------------------------|
Ab|-3----3-0-5--3--2-----3---3-2-2-2-2-2-2-2-2-2-2-|
Eb|----------3--1--0-0-0-1-0-1-0-0-0-0-0-0-0-0-0-0-|
                     * *   *     * * * * * * * * *
   "Stand alone..."
eb|---------------------------------|
Bb|---------------------------------|
Gb|---------------------------------|
Db|---------------------------------|
Ab|-2-----3---3-2-2-2-2-2-2-2-2-2-0-|
Eb|-0-0-0-1-0-1-0-0-0-0-0-0-0-0-0-0-|
      * *   *     * * * * * * * * *


Riff 3a
Guitar 1
eb|----------------------------------|
Bb|----------------------------------|
Gb|----------------------------------|
Db|----------------------------------|
Ab|-2---7---7-8-7--2-----7---7-10-8--|
Eb|-0-0---0--------0-0-0---0---------|
      *   *          * *   *         
eb|----------------------------------|
Bb|----------------------------------|
Gb|----------------------------------|
Db|----------------------------------|
Ab|-2-----7---7-8-7------------------|
Eb|-0-0-0---0-------00-1-0-1-0-1-0-1-|
      * *   *       ** * * * * * * *
eb|------------------------------------|
Bb|------------------------------------|
Gb|------------------------------------|
Db|------------------------------------|
Ab|-2-----7---7-8-7--2-----7---7-10-8--|
Eb|-0-0-0---0--------0-0-0---0---------|
      * *   *          * *   *         
eb|----------------------------------|
Bb|----------------------------------|
Gb|----------------------------------|
Db|----------------------------------|
Ab|-2-----7---7-8-7------------------|
Eb|-0-0-0---0-------00-1-0-1-0-1-0-1-|
      * *   *       ** * * * * * * *

Guitar 2
eb|----------------------------------|
Bb|----------------------------------|
Gb|----------------------------------|
Db|----------------------------------|
Ab|-2---7---7-8-7--2-----7---7-10-8--|
Eb|-0-0---0--------0-0-0---0---------|
      *   *          * *   *         
eb|----------------------------------|
Bb|----------------------------------|
Gb|----------------------------------|
Db|----------------------------------|
Ab|-2-----7---7-8-7------------------|
Eb|-0-0-0---0-------00-1-0-1-0-1-0-1-|
      * *   *       ** * * * * * * *
eb|-----------------------------------------|
Bb|-----------------------------------------|
Gb|-----------------------------------------|
Db|-----------------------------------------|
Ab|-2-----10---10-12-10-2-----10---10-14-12-|
Eb|-0-0-0----0----------0-0-0----0----------|
      * *    *            * *    *         
eb|----------------------------------------|
Bb|----------------------------------------|
Gb|----------------------------------------|
Db|----------------------------------------|
Ab|-2-----10---10-12-10--------------------|
Eb|-0-0-0----0----------00-1-0-1-0-1-0-1-0-|
      * *    *          ** * * * * * * * *


Riff 5 (Solo Rhythm)
eb|-----------------------------|
Bb|-----------------------------|
Gb|-----------------------------|
Db|-----------------------------|
Ab|-2-2----2-2----2-2----5----3-|
Eb|-0-0----0-0----0-0----3----1-|
    * *    * *    * *

Solo
eb|-12-0-0-10-0-0-8-0-7-0-0-8-0-0-10-0-|
Bb|------------------------------------|
Gb|------------------------------------|
Db|------------------------------------|
Ab|------------------------------------|
Eb|------------------------------------|
                                                                           
eb|-10-0-0-8-0-0-7-0-5-0-0-4-0-0-5-0-|
Bb|----------------------------------|
Gb|----------------------------------|
Db|----------------------------------|
Ab|----------------------------------|
Eb|----------------------------------|

eb|-5-0-0-7-0-0-8-0-0-7-0-5-5--7-5-4-5--/17--17~--(17)\-|
Bb|-----------------------------------------------------|
Gb|-----------------------------------------------------|
Db|-----------------------------------------------------|
Ab|-----------------------------------------------------|
Eb|-----------------------------------------------------|

(Guitar 2 plays bottom notes)
eb|-17tm--------------17tm---20tm--19tm--17tm--15~-|
Bb|-15tm--17tm--18tm--15tm---18tm--17tm--15tm--13~-|
Gb|-------14tm--15tm-------------------------------|
Db|------------------------------------------------|
Ab|------------------------------------------------|
Eb|------------------------------------------------|

eb|----------10-12h13p12p10--------------------------|
Bb|-10-12-13----------------13-12\-------------------|
Gb|---------------------------------/10~--12-10-9~-\-|
Db|--------------------------------------------------|
Ab|--------------------------------------------------|
Eb|--------------------------------------------------|

End solo


Riff 3b
Guitar 1
eb|----------------------------------|
Bb|----------------------------------|
Gb|----------------------------------|
Db|----------------------------------|
Ab|-2---7---7-8-7--2-----7---7-10-8--|
Eb|-0-0---0--------0-0-0---0---------|
      *   *          * *   *         
eb|----------------------------------|
Bb|----------------------------------|
Gb|----------------------------------|
Db|----------------------------------|
Ab|-2-----7---7-8-7------------------|
Eb|-0-0-0---0-------00-1-0-1-0-1-0-1-|
      * *   *       ** * * * * * * *
eb|------------------------------------|
Bb|------------------------------------|
Gb|------------------------------------|
Db|------------------------------------|
Ab|-2-----7---7-8-7--2-----7---7-10-8--|
Eb|-0-0-0---0--------0-0-0---0---------|
      * *   *          * *   *         
eb|----------------------------------|
Bb|----------------------------------|
Gb|----------------------------------|
Db|----------------------------------|
Ab|-2-----7---7-8-7------------------|
Eb|-0-0-0---0-------00-1-0-1-0-1-0-1-|
      * *   *       ** * * * * * * *

Guitar 2
eb|---------------------------------------|
Bb|---------------------------------------|
Gb|---------------------------------------|
Db|---------------------------------------|
Ab|-2---10---10-12-10-2-----10---10-14-12-|
Eb|-0-0----0----------0-0-0----0----------|
      *    *            * *    *         
eb|----------------------------------------|
Bb|----------------------------------------|
Gb|----------------------------------------|
Db|----------------------------------------|
Ab|-2-----10---10-12-10--------------------|
Eb|-0-0-0----0----------00-1-0-1-0-1-0-1-0-|
      * *    *          ** * * * * * * * *
eb|-----------------------------------------|
Bb|-----------------------------------------|
Gb|-----------------------------------------|
Db|-----------------------------------------|
Ab|-2-----10---10-12-10-2-----10---10-14-12-|
Eb|-0-0-0----0----------0-0-0----0----------|
      * *    *            * *    *         
eb|----------------------------------------|
Bb|----------------------------------------|
Gb|----------------------------------------|
Db|----------------------------------------|
Ab|-2-----10---10-12-10--------------------|
Eb|-0-0-0----0----------00-1-0-1-0-1-0-1-0-|
      * *    *          ** * * * * * * * *



Riff 6
eb|----------------------------------|
Bb|----------------------------------|
Gb|----------------------------------|
Db|----------------------------------|
Ab|-2-2-2-3--3-2---------------------|
Eb|-0-0-0-1--1-0--000-0-000-00000000-|
    * * * *  * *  *** * *** ********
eb|---------------------------------|
Bb|---------------------------------|
Gb|---------------------------------|
Db|---------------------------------|
Ab|-2--2-3--3-2---------------------|
Eb|-0--0-1--1-0--000-0-000-00000000-|
    *  * *  * *  *** * *** ********


Play Riff 2   "Son, say what you mean..."
Play Riff 4   "Stand alone..."
Play Riff 5   Solo Rhythm


Solo
eb|-5-0-5-0-4-0-4-0-5-0-5-0-7-0-7-0-|
Bb|---------------------------------|
Gb|---------------------------------|
Db|---------------------------------|
Ab|---------------------------------|
Eb|---------------------------------|

eb|-8-0-8-0-7-0-7-0-5-0-5-0-4-0-4-0-|
Bb|---------------------------------|
Gb|---------------------------------|
Db|---------------------------------|
Ab|---------------------------------|
Eb|---------------------------------|

eb|-8-0-8-0-7-0-7-0-8-0-8-0-10-0-10-0-|
Bb|-----------------------------------|
Gb|-----------------------------------|
Db|-----------------------------------|
Ab|-----------------------------------|
Eb|-----------------------------------|

eb|-12-0-12-0-10-0-10-0-8-0-8-0-7-0-7-0-|
Bb|-------------------------------------|
Gb|-------------------------------------|
Db|-------------------------------------|
Ab|-------------------------------------|
Eb|-------------------------------------|


Harmony section:
Guitar 1                                                                      
eb|-5-0-5-0-4-0-4-0-5-0-5-0-7-0-7-0-|
Bb|---------------------------------|
Gb|---------------------------------|
Db|---------------------------------|
Ab|---------------------------------|
Eb|---------------------------------|

eb|-8-0-8-0-7-0-7-0-5-0-5-0-4-0-4-0-|
Bb|---------------------------------|
Gb|---------------------------------|
Db|---------------------------------|
Ab|---------------------------------|
Eb|---------------------------------|

eb|-8-0-8-0-7-0-7-0-8-0-8-0-10\--/8-10--8p7-------|
Bb|-----------------------------------------8~--\-|
Gb|-----------------------------------------------|
Db|-----------------------------------------------|
Ab|-----------------------------------------------|
Eb|-----------------------------------------------|

eb|-----------------------|
Bb|----12-13--15--13------|
Gb|-14----------------14~-|
Db|-----------------------|
Ab|-----------------------|
Eb|-----------------------|


Guitar 2
eb|-8-0-8-0-7-0-7-0-8-0-8-0-10-0-10-0-|
Bb|-----------------------------------|
Gb|-----------------------------------|
Db|-----------------------------------|
Ab|-----------------------------------|
Eb|-----------------------------------|

eb|-12-0-12-0-10-0-10-0-8-0-8-0-7-0-7-0-|
Bb|-------------------------------------|
Gb|-------------------------------------|
Db|-------------------------------------|
Ab|-------------------------------------|
Eb|-------------------------------------|

eb|-12-0-12-0-10-0-10-0-12-0-12-0-13\--/15-17--12-10--------|
Bb|------------------------------------/17-18--------12~--\-|
Gb|---------------------------------------------------------|
Db|---------------------------------[harmony on top]--------|
Ab|---------------------------------------------------------|
Eb|---------------------------------------------------------|

eb|----10--12--13---12------|
Bb|-13------------------13~-|
Gb|-------------------------|
Db|-------------------------|
Ab|-------------------------|
Eb|-------------------------|

End solo

Ending 
eb|--------------|
Bb|--------------|
Gb|--------------|
Db|--------------|
Ab|-2-2-2-3--3-2-|
Eb|-0-0-0-1--1-0-|
    * * * *  * *

----------------------------------------------------

6. CONSEQUENCES

Tuning: Eb

6 string acoustic

Riff 1                         x2
eb|--0---0-0----0-0-0-3--2----0-|
Bb|--0---0-0----0-0-0-0--3----0-|
Gb|--0---0-0----0-0-0-0--2----0-|
Db|--2---2----------0-0--0------|
Ab|--2---2------------2---------|
Eb|--0---0------------3---------|
   "As human beings..."
eb|--0---0-0----0-0-0-3--2----0-|
Bb|--1---1-1----1-1-0-0--3----0-|
Gb|--2---2-2----2-2-0-0--2----0-|
Db|--2---2------------0--0------|
Ab|--0---0------------2---------|
Eb|-------------------3---------|
   "Sometimes so beautiful..."
eb|--0---0-0----0-0-0-3--2----0-|
Bb|--0---0-0----0-0-0-0--3----0-|
Gb|--0---0-0----0-0-0-0--2----0-|
Db|--2---2----------0-0--0------|
Ab|--2---2------------2---------|
Eb|--0---0------------3---------|
   "Other times so vain..."


Riff 2
Guitar 1 (Acoustic)
eb|-0--0-0----0-0--0----3--3-3----3-3-3------|
Bb|-1--1-1----1-1--1----0--0-0----0-0-0------|
Gb|-2--2-2----2-2--2----0--0-0----0-0-0------|
Db|-2--2-2----2-2--2----0--0-0----0-0-0-5--4-|
Ab|-0--0-0----0-0--0----2--2-2----2-2-2------|
Eb|---------------------3--3-3----3-3-3-3--2-|
    "Oh..."
eb|-0--0-0-0--0----0-0-------0--0-0-0--0----0-0------|
Bb|-0--0-0-0--0----0-0-------0--0-0-0--0----0-0------|
Gb|-0--0-0-0--0----0-0-------0--0-0-0--0----0-0------|
Db|-2--2---2-------2---5--4--2--2---2-------2---5--4-|
Ab|-2--2---2-------2---------2--2---2-------2--------|
Eb|-0--0---0-------0---3--2--0--0---0-------0---3--2-|
    "...you ought to know"

Guitar 2 (Clean)
eb|------------0-------------------0----|
Bb|--------0h1-------------------0------|
Gb|------2---------------------0--------|
Db|----2---------------------0----------|
Ab|-0----------------------2------------|
Eb|---------------------3---------------|

eb|-------------------------------------|
Bb|------------0-------------------0----|
Gb|--------0-------------------0--------|
Db|------4---4---------------4---4------|
Ab|----2-------------------2------------|
Eb|-0-------------------0---------------|
   


Play Riff 1   "Wrote about in..."
Play Riff 2   "Oh..." leave off last two notes final time

Riff 3 (Distortion, Solo Rhythm)      
                              x2
eb|----------------------------|
Bb|----------------------------|
Gb|----------------------------|
Db|-5--4--2-------2---2--2-2-0-|
Ab|-5--4--2-2-2-2-2-2-2--2-2-0-|
Eb|-3--2--0-0-0-0-0-0-0--0-0---|
            * * *   *
eb|-------------------------------------------------------|
Bb|-------------------------------------------------------|
Gb|-------------------------------7-----------------------|
Db|-5--4--7-------7---7--7-7-5-5--7--2-------2---2--2-2-0-|
Ab|-5--4--7-7-7-7-7-7-7--7-7-5-5--5--2-2-2-2-2-2-2--2-2-0-|
Eb|-3--2--5-5-5-5-5-5-5--5-5-3-3-----0-0-0-0-0-0-0--0-0---|
            * * *   *                  * * *   *
                              x2
eb|----------------------------|
Bb|----------------------------|
Gb|----------------------------|
Db|-5--4--2-------2---2--2-2-0-|
Ab|-5--4--2-2-2-2-2-2-2--2-2-0-|
Eb|-3--2--0-0-0-0-0-0-0--0-0---|
            * * *   *
eb|-------------------------------------------------------|
Bb|-------------------------------------------------------|
Gb|-------------------------------7-----------------------|
Db|-5--4--7-------7---7--7-7-5-5--7--2-------2---2--2-2-0-|
Ab|-5--4--7-7---7-7-7-7--7-7-5-5--5--2-2-2-2-2-2-2--2-2-0-|
Eb|-3--2--5-5-555-5-5-5--5-5-3-3-----0-0-0-0-0-0-0--0-0---|
            * ***   *                  * * *   *
eb|----------------------------------------------------------|
Bb|----------------------------------------------------------|
Gb|----------------------------------------------------------|
Db|-5--4--7-------7---7-----------------5-------5---5--5-5---|
Ab|-5--4--7-7---7-7-7-7-7-7---7----6----5-5---5-5-5-5--5-5---|
Eb|-3--2--5-5-555-5-5-5-5-5-555-55-4-44-3-3-333-3-3-3--3-3-0-|
            * ***   *   * * *** ** * **   * ***   *
                              x2
eb|----------------------------|
Bb|----------------------------|
Gb|----------------------------|
Db|-5--4--2-------2---2--2-2-0-|
Ab|-5--4--2-2-2-2-2-2-2--2-2-0-|
Eb|-3--2--0-0-0-0-0-0-0--0-0---|
            * * *   *
eb|----------------------------------------------------------|
Bb|----------------------------------------------------------|
Gb|----------------------------------------------------------|
Db|-5--4--7-------7---7-----------------5-------5---5--5-5---|
Ab|-5--4--7-7---7-7-7-7-7-7---7----6----5-5---5-5-5-5--5-5---|
Eb|-3--2--5-5-555-5-5-5-5-5-555-55-4-44-3-3-333-3-3-3--3-3-0-|
            * ***   *   * * *** ** * **   * ***   *
                              x2
eb|----------------------------|--------|
Bb|----------------------------|--------|
Gb|----------------------------|--------|
Db|-5--4--2-------2---2--2-2-0-|--5--4--|
Ab|-5--4--2-2-2-2-2-2-2--2-2-0-|--5--4--|
Eb|-3--2--0-0-0-0-0-0-0--0-0---|--3--2--|
            * * *   *


Solo
eb|--------------------------------3-3-3-2-3-5----------|
Bb|--------8~--10p8p7------------0-0-0-0-0-0------8-7~--|
Gb|-------------------9~----(9)\------------------------|
Db|-----------------------------------------------------|
Ab|-/7~-------------------------------------------------|
Eb|-----------------------------------------------------|

eb|-------5~---/8--7~----(7)\-------------------|
Bb|-5-7-8----------------------/8-7h8-\5~--(5)\-|
Gb|---------------------------------------------|
Db|---------------------------------------------|
Ab|---------------------------------------------|
Eb|---------------------------------------------|

eb|-/12--12------12\---------------------------|
Bb|-----------------------7--8-----10~--8-7----|
Gb|--------------------/9--------9----------9~-|
Db|--------------------------------------------|
Ab|--------------------------------------------|
Eb|--------------------------------------------|

eb|--------------------8-7---------|
Bb|---7-8~----10-8-7~------10-8-7~-|
Gb|-9------------------------------|
Db|--------------------------------|
Ab|--------------------------------|
Eb|--------------------------------|

eb|---------14----14----17p14---------x-|
Bb|-------15---15----15------15------x--|
Gb|-----14---------------------14--14---|
Db|---16-------------------------16-----|
Ab|-17----------------------------------|
Eb|-------------------------------------|

eb|-14h17p14-14-14-17-14-14-15-/19~----19h20-19~\-----|
Bb|---------------------------------------------------|
Gb|------------------------------------------------4/-|
Db|---------------------------------------------------|
Ab|---------------------------------------------------|
Eb|---------------------------------------------------|

(Harmony guitar plays top notes)
eb|--------12------12-14-15-14~-|
Bb|--12~---10--12--10-12-13-12~-|
Gb|---9~--------9---------------|
Db|-----------------------------|
Ab|-----------------------------|
Eb|-----------------------------|

eb|-----12-14-15~---17-15-14--20-19-17--------|
Bb|--12-10-12-13~---15-13-12--18-17-15-20-19~-|
Gb|---9--------------------------------17-16~-|
Db|-------------------------------------------|
Ab|-------------------------------------------|
Eb|-------------------------------------------|

eb|------------------------------|
Bb|-/12-15~--12-15/17-17~--(17)\-|
Gb|------------------------------|
Db|------------------------------|
Ab|------------------------------|
Eb|------------------------------|

eb|------------------------------|
Bb|-/12-15~--12-15/17-17~--(17)\-|
Gb|------------------------------|
Db|------------------------------|
Ab|------------------------------|
Eb|------------------------------|

eb|-19p15----------15-19-15-15-15-19-15\14-14-14-|
Bb|------17------17------------------------------|
Gb|--------16--16--------------------------------|
Db|----------17----------------------------------|
Ab|----------------------------------------------|
Eb|----------------------------------------------|

eb|-17p14------14-17--15--14------|
Bb|------15--15---------------15~-|
Gb|--------14---------------------|
Db|-------------------------------|
Ab|-------------------------------|
Eb|-------------------------------|

eb|----------------------------------------|
Bb|-----------/15-15/17-17-15-15/17-17-17\-|
Gb|-/14-14~\--/14-14/16-16-14-14/16-16-16\-|
Db|----------------------------------------|
Ab|----------------------------------------|
Eb|----------------------------------------|

Harmony ending:
Guitar 1
eb|------------------------------|
Bb|-/12-15~--12-15/17-17~--(17)\-|
Gb|------------------------------|
Db|------------------------------|
Ab|------------------------------|
Eb|------------------------------|

eb|------------------------------------|
Bb|-/12-15~--12-15/17-17b19--17p15-17~-|
Gb|------------------------------------|
Db|------------------------------------|
Ab|------------------------------------|
Eb|------------------------------------|

Guitar 2
eb|-/10-14~--10-14/15-15~--(15)\-|
Bb|------------------------------|
Gb|------------------------------|
Db|------------------------------|
Ab|------------------------------|
Eb|------------------------------|

eb|-/10-14~--10-14/15-15b17--15p14-15~-|
Bb|------------------------------------|
Gb|------------------------------------|
Db|------------------------------------|
Ab|------------------------------------|
Eb|------------------------------------|

End Solo


Play Riff 1   "If we could focus..."
Play Riff 2   "Oh..."
NOTE: Leave off last two notes last time and
let final chord ring til Riff 4.

Riff 4 (Distortion)
Guitar 1
eb|----------------------------------|
Bb|----------------------------------|
Gb|----------------------------------|
Db|----------------7--7-7-7----------|
Ab|-2--2-2-2----5--5--5-5-5----(5)p0-|
Eb|-0--0-0-0----3--------------------|
       * *            * *
  "We can change the world..."
eb|-------------------------|
Bb|-------------------------|
Gb|-------------------------|
Db|-------------------------|
Ab|-7--7-7-7----5--2--2-2-2-|
Eb|-5--5-5-5----3--0--0-0-0-|
       * *            * *

Guitar 2
eb|-----------------------------|
Bb|-----------------------------|
Gb|-----------------------------|
Db|----5~-----5-4----5-5-4---4~-|
Ab|-7~------7-----5--------5----|
Eb|-----------------------------|

eb|--------------------------------|
Bb|--------------------------------|
Gb|--------------------------------|
Db|-4-5-4------4-5-4------4-5-4----|
Ab|-------7~---------5~---------7~-|
Eb|--------------------------------|

Guitar 3
eb|------------------------------|
Bb|------------------------------|
Gb|----4~-----4------4-4---------|
Db|-5~------5---7-4------7-4--7~-|
Ab|------------------------------|
Eb|------------------------------|

eb|--------------------------------|
Bb|--------------------------------|
Gb|---4----------4----------4------|
Db|-7---7-7~---7---7-4~---7---7-5~-|
Ab|--------------------------------|
Eb|--------------------------------|

Guitar 4
eb|-----12~-------12-14/15\14--14~-|
Bb|-12~--------12------------------|
Gb|--------------------------------|
Db|--------------------------------|
Ab|--------------------------------|
Eb|--------------------------------|

eb|-12-14-15~----14-15-15/17--(17)\15-15--14-15-12~-|
Bb|-------------------------------------------------|
Gb|-------------------------------------------------|
Db|-------------------------------------------------|
Ab|-------------------------------------------------|
Eb|-------------------------------------------------|

----------------------------------------------------------

7. MY OWN SAVIOR
Tuning: Eb


NOTE: For this riff, the ending single notes are struck
like artificial harmonics, but so slight that I
didn't even mark them as such.  The G note at the
very end is normal however.

Riff 1
eb|-----------------------------------|
Bb|-----------------------------------|
Gb|-----------------------------------|
Db|-----------------------------------|
Ab|---------------------------------5-|
Eb|-02222222-02222222-02222222-0200-3-|
    ******** ******** ******** ****
eb|----------------------------------|
Bb|----------------------------------|
Gb|----------------------------------|
Db|----------------------------------|
Ab|-----------------------3---5-3----|
Eb|-02222222-02222220-2-2---2-----3~-|
    ******** ******** * *   *

Final time:
eb|-----------------------------------|
Bb|-----------------------------------|
Gb|-----------------------------------|
Db|-----------------------------------|
Ab|-----------------------3---5-3-2---|
Eb|-02222222-02222220-2-2---2-------3-|
    ******** ******** * *   *


Riff 2
eb|-----------------------------------------------------|
Bb|-----------------------------------------------------|
Gb|-----------------------------------------------------|
Db|-2-----------5-5---5/7\5-4---------------------------|
Ab|-2-2-2-2-2-2-5-5---5/7\5-4-4-4-4-4-4-4-4-4-4-4-4-4-4-|
Eb|-0-0-0-0-0-0-3-3-0-3/5\3-2-2-2-2-2-2-2-2-2-2-2-2-2-2-|
      * * * * *               * * * * * * * * * * * * *
   "My only comfort..."
eb|-------------------------------------------------------|
Bb|-------------------------------------------------------|
Gb|-------------------------------------------------------|
Db|-2-----------5-5---5/7\5-4-----------------------------|
Ab|-2-2-2-2-2-2-5-5---5/7\5-4-4-4-4-4----4-4-4----4-4-4-4-|
Eb|-0-0-0-0-0-0-3-3-0-3/5\3-2-2-2-2-2-22-2-2-2-22-2-2-2-2-|
      * * * * *               * * * * ** * * * ** * * * *
   "My only solace..."
eb|-----------------------------------------------------|
Bb|-----------------------------------------------------|
Gb|-----------------------------------------------------|
Db|-2-----------5-5---5/7\5-4---------------------------|
Ab|-2-2-2-2-2-2-5-5---5/7\5-4-4-4-4-4-4-4-4-4-4-4-4-4-4-|
Eb|-0-0-0-0-0-0-3-3-0-3/5\3-2-2-2-2-2-2-2-2-2-2-2-2-2-2-|
      * * * * *               * * * * * * * * * * * * *
   "For release..."
eb|-------------------------|
Bb|-------------------------|
Gb|-------------------------|
Db|-2-----------5-5---5/7\5-|
Ab|-2-2-2-2-2-2-5-5---5/7\5-|
Eb|-0-0-0-0-0-0-3-3-0-3/5\3-|
      * * * * *
   "Thrown past life..."

Play Riff 1 
Play Riff 2    "Life's a bitch..."

Riff 3 (Clean)      
eb|------------------------------------|
Bb|------------------------------------|
Gb|-----12------11--------12------11---|
Db|---12------11--11----12------11--11-|
Ab|-10-----9----------10-----9---------|
Eb|------------------------------------|
   "Existence of one man..."
eb|-----------------------------------|
Bb|-----------------------------------|
Gb|-----12-----11--------11------11---|
Db|---12-----11-----9--11--11--11--11-|
Ab|-10-----9------7---9-------9-------|
Eb|-----------------------------------|
   "...hatred with no end..."


Riff 4 (Distortion)
eb|----------------------------------------------------|
Bb|----------------------------------------------------|
Gb|----------------------------------------------------|
Db|----------------------------------------------------|
Ab|-5---4--------5---4--------5---4---2---4---4--------|
Eb|-3-0-2-2-2200-3-0-2-2-2200-3-0-2-0-0-0-2-2-2-2-2200-|
      *   * ****   *   * ****   *   *   *   *   * ****
   "My madness..."

Lead over Riff 4 (Keyboard synth type effect)
eb|-------------------------------------|
Bb|-------------------------------------|
Gb|-6~--7~--9/11\6~---------------------|
Db|------quick slide---9~--11~--9/11\8~-|
Ab|-------------------------------------|
Eb|-------------------------------------|

eb|--------------------------|
Bb|--------------------------|
Gb|-6~--7~--9/11\6~----9/11~-|
Db|------quick slide---------|
Ab|--------------------------|
Eb|--------------------------|



Riff 5 (Solo Rhythm)
eb|----------------------------------------------------|
Bb|----------------------------------------------------|
Gb|----------------------------------------------------|
Db|-7---6--------7---6--------7---6---4---6---6--------|
Ab|-5-0-4-4-4444-5-0-4-4-4444-5-0-4-0-2-0-4-4-4-4-4444-|
Eb|----------------------------------------------------|
      *   * ****   *   * ****   *   *   *   *   * ****
eb|----------------------------------------------------|
Bb|----------------------------------------------------|
Gb|----------------------------------------------------|
Db|-7---6--------7---6--------7---6---4---6---6--------|
Ab|-5-0-4-4-4444-5-0-4-4-4444-5-0-4-0-2-0-4-4-4-4-4400-|
Eb|----------------------------------------------------|
      *   * ****   *   * ****   *   *   *   *   * ****
eb|----------------------------------------------------|
Bb|----------------------------------------------------|
Gb|----------------------------------------------------|
Db|----------------------------------------------------|
Ab|-5---4--------5---4--------5---4---2---4---4--------|
Eb|-3-0-2-2-2200-3-0-2-2-2200-3-0-2-0-0-0-2-2-2-2-2200-|
      *   * ****   *   * ****   *   *   *   *   * ****
eb|---------------------------------------------------|
Bb|---------------------------------------------------|
Gb|---------------------------------------------------|
Db|---------------------------------------------------|
Ab|-5---4--------5---4--------5---4---2---4---4-------|
Eb|-3-0-2-2-2200-3-0-2-2-2200-3-0-2-0-0-0-2-2-2-2-222-|
      *   * ****   *   * ****   *   *   *   *   * ***


Solo
eb|----------------7-9h10p9p7----------|
Bb|------------7-8------------8p7------|
Gb|--/7-6--6-7--------------------7-6~-|
Db|------------------------------------|
Ab|------------------------------------|
Eb|------------------------------------|
                                        
eb|-10-9-7----7-9~--10p9p7-9~--\4-4-/10--9p7------------|
Bb|--------11--------------------------------7~----(7)\-|
Gb|-----------------------------------------------------|
Db|-----------------------------------------------------|
Ab|-----------------------------------------------------|
Eb|-----------------------------------------------------|

eb|------------9----9-10-10/15p14----------14----|
Bb|---------10---10---------------15-12-15----15-|
Gb|-6/11-11--------------------------------------|
Db|----------------------------------------------|
Ab|----------------------------------------------|
Eb|----------------------------------------------|

eb|-14h15-15/19-20-19p17-------|
Bb|---------------------20-19~-|
Gb|----------------------------|
Db|----------------------------|
Ab|----------------------------|
Eb|----------------------------|

Splits into two guitars:

Guitar 1
eb|-----------------------------------------------------|
Bb|-------------------------------/8-7----5--7h8p7p5-7~-|
Gb|----------------/7-6~--6-6666------------------------|
Db|-/5-4~--4-4444---------------------------------------|
Ab|-----------------------------------------------------|
Eb|-----------------------------------------------------|

eb|-------------------------------------------------------------|
Bb|-------------------------------/8-7--/10--8-8-7-8~--7~--(7)\-|
Gb|----------------/7-6~--6-6666-------------------a---a--------|
Db|-/5-4~--4-4444-----------------------------------------------|
Ab|-------------------------------------------------------------|
Eb|-------------------------------------------------------------|

Guitar 2
eb|-----------------------------------------------------|
Bb|-----------------------------------------------------|
Gb|-----------------------------------------------------|
Db|-/5-4~--4-4444--/5-4~--4-4444--/5-4-------4h5p4---4~-|
Ab|---------------------------------------7--------7----|
Eb|-----------------------------------------------------|

eb|------------------------------------------------------------|
Bb|------------------------------------------------------------|
Gb|------------------------------------------------------------|
Db|-/5-4~--4-4444--/5-4~--4-4444--/5-4--/7--5-5-4-5~--4~--(4)\-|
Ab|-----------------------------------------------a---a--------|
Eb|------------------------------------------------------------|

End solo

Play Riff 1
Play Riff 2   "The voices are calling..."
Play Riff 3   "Existence of one man..."
Play Riff 4   "My madness..."

Final time for Riff 4
eb|----------------------------------------------|
Bb|----------------------------------------------|
Gb|----------------------------------------------|
Db|----------------------------------------------|
Ab|-5---4--------5---4--------5---4---2---4---4--|
Eb|-3-0-2-2-2200-3-0-2-2-2200-3-0-2-0-0-0-2-2-2--|
      *   * ****   *   * ****   *   *   *   *


Riff 6               x2
eb|-------------------|---------------------------------------|
Bb|-------------------|---------------------------------------|
Gb|-------------------|---------------------------------------|
Db|-------------------|---------------------------------------|
Ab|-------------------|---------------------------------------|
Eb|-333333-2222222222-|-333333-222222-0000-222222-22222222222-|
    ****** **********   ****** ****** **** ****** ***********
eb|-------------------|--------------------------------------|
Bb|-------------------|--------------------------------------|
Gb|-------------------|--------------------------------------|
Db|-------------------|--------------------------------------|
Ab|-------------------|--------------------------------------|
Eb|-333333-2222222222-|-333333-222222-0000-222222-2222222220-|
    ****** **********   ****** ****** **** ****** **********


Riff 7             x3
eb|-----------------|-----------------|
Bb|-----------------|-----------------|
Gb|-----------------|-----------------|
Db|-----------------|-----------------|
Ab|---5-4---5-4-2-4-|---2-------------|
Eb|-2-----2---------|-5---5-3-5-3-2-3-|
    * * * * * * * *   * * * * * * * * 

Riff 8             x3
eb|-----------------|-----------------|
Bb|-----------------|-----------------|
Gb|---7-6---7-6-4-6-|---4-------------|
Db|-4-----4---------|-7---7-5-7-5-4-5-|
Ab|-----------------|-----------------|
Eb|-----------------|-----------------|
    * * * * * * * *   * * * * * * * * 

Riff 9
eb|------------------------------------------------------------|
Bb|------------------------------------------------------------|
Gb|------------------------------------------------------------|
Db|-12---11--------12---11--------12---11---9---11---11--------|
Ab|-10-0--9-9-9999-10-0--9-9-9999-10-0--9-0-7-0--9-0--9-9-9999-|
Eb|------------------------------------------------------------|
       *    * ****    *    * ****    *    *   *    *    * ****
eb|-----------------------------------------------------|
Bb|-----------------------------------------------------|
Gb|-----------------------------------------------------|
Db|-12---11--------12---11--------12---11--\9-11--9-11\-|
Ab|-10-0--9-9-9999-10-0--9-9-9999-10-0--9--\7--9--7--9\-|
Eb|-----------------------------------------------------|
       *    * ****    *    * ****    *

--------------------------------------------------------------------

8. REAPING STONE
Tuning: Eb

Intro:

(Clean)
eb|-0-----|
Bb|--0----|
Gb|---2---|
Db|----2--|
Ab|-----0-|
Eb|-------|

(Harmonics are clean guitar, the other notes are distortion)
eb|-------------------------------7----------------|
Bb|-12----10~--12~--13~--------7--h-7---------12~\-|
Gb|--h-----------------------5-h----h--------------|
Db|--------------------------h---------------------|
Ab|------------------------------------------------|
Eb|------------------------------------------------|


Verse 1  Bass only


Riff 1 (Distortion)
eb|------------------------------|
Bb|------------------------------|
Gb|------------/9---9-8----(8)\--|
Db|-5---7--7\--/9---9-8----(8)\--|
Ab|-3-5-7--7\--/7---7-6----(6)\--|
Eb|---3-5--5\-----0--------------|
    * *           *
eb|----------------------------------|
Bb|----------------------------------|
Gb|--------/9---9-8----8-7--(7)\-5---|
Db|-7--7\--/9---9-8----8-7--(7)\-5-5-|
Ab|-7--7\--/7---7-6----6-5--(5)\-3-5-|
Eb|-5--5\-----0------0-------------3-|
              *      *           * *
eb|-----------------------|
Bb|-----------------------|
Gb|--------/9---9-8-------|
Db|-7--7\--/9---9-8-------|
Ab|-7--7\--/7---7-6----77-|
Eb|-5--5\-----0--------55-|
              *
eb|----------------------------------|
Bb|----------------------------------|
Gb|--------/9---9-8----8-7--(7)\-5---|
Db|-7--7\--/9---9-8----8-7--(7)\-5-5-|
Ab|-7--7\--/7---7-6----6-5--(5)\-3-5-|
Eb|-5--5\-----0------0-------------3-|
              *      *           * * 


Verse 2   Bass only, except for this little guitar fill:
(Clean)
eb|--12------|
Bb|---h12----|
Gb|-----h----|
Db|-------7--|
Ab|-------h--|
Eb|----------|


Play Riff 1   "Come into my world..."

Riff 2
Guitar 1
eb|------------------------------------|
Bb|------------------------------------|
Gb|------------------------------------|
Db|------------------------------------|
Ab|-2--2-2----9------8------7----------|
Eb|-0--0-0--7---7-6~---6-5~---5~--(5)\-|
       * *
eb|------------------------------------|
Bb|------------------------------------|
Gb|------------------------------------|
Db|------------------------------------|
Ab|-2--2-2----9------8------7----------|
Eb|-0--0-0--7---7-6~---6-5~---5~--(5)\-|
       * *

Guitar 2
eb|------------------------------------|
Bb|------------------------------------|
Gb|------------------------------------|
Db|------------------------------------|
Ab|-2--2-2----9------8------7----------|
Eb|-0--0-0--7---7-6~---6-5~---5~--(5)\-|
       * *  a a a a  a a a  a a
eb|----------------------------------------|
Bb|----------------------------------------|
Gb|----------------------------------------|
Db|-----------11-------10-------9----------|
Ab|-2--2-2--9----9-8~-----8-7~----7~--(7)\-|
Eb|-0--0-0---------------------------------|
       * *


Play Riff 1   "Come into my world..."

Riff 3
eb|----------------------------------|
Bb|----------------------------------|
Gb|----------------------------------|
Db|-------10----10------10-10--12\10-|
Ab|--------8-----8-------8--8--10\-8-|
Eb|-0-000----------0-000-------------|
    * ***          * ***
eb|----------------------------------|
Bb|----------------------------------|
Gb|----------------------------------|
Db|-------10-10-10------10-10--12\10-|
Ab|--------8--8--8-------8--8--10\-8-|
Eb|-0-000----------0-000-------------|
    * ***          * ***

Riff 4
eb|-------------------------------------|
Bb|-------------------------------------|
Gb|-------------------------------------|
Db|-------------------------------------|
Ab|-------------------------------------|
Eb|-0-0000-0-00000000-0-0000-0-0000-3-1-|
    * **** * ******** * **** * **** * *


Riff 3a
eb|-----------------------------------|
Bb|-----------------------------------|
Gb|-----------------------------------|
Db|--------10----10------10-10--12\10-|
Ab|---------8-----8-------8--8--10\-8-|
Eb|-0-0000----------0-000-------------|
    * ****          * ***
  "Think not of ones..."
eb|----------------------------------|
Bb|----------------------------------|
Gb|----------------------------------|
Db|-------10-10-10------10-10--12\10-|
Ab|--------8--8--8-------8--8--10\-8-|
Eb|-0-000----------0-000-------------|
    * ***          * ***


Play Riff 4


Riff 3b
eb|-----------------------------------|
Bb|-----------------------------------|
Gb|-----------------------------------|
Db|--------10----10------10-10--12\10-|
Ab|---------8-----8-------8--8--10\-8-|
Eb|-0-0000----------0-000-------------|
    * ****          * ***
  "Think not of ones..."
eb|----------------------------------|
Bb|----------------------------------|
Gb|----------------------------------|
Db|-------10----10------10-10--12\10-|
Ab|--------8-----8-------8--8--10\-8-|
Eb|-0-000----------0-000-------------|
    * ***          * ***



Riff 5
eb|----------------------------------|
Bb|----------------------------------|
Gb|----------------------------------|
Db|----------------------------------|
Ab|-0-000-7-000-6-000-6-000-5555-3---|
Eb|--------------------------------3-|
    * *** * *** * *** * *** **** * *

Riff 6
eb|--------------------------|
Bb|--------------------------|
Gb|--------------------------|
Db|--------------------------|
Ab|-0--7--6--5--3------------|
Eb|---------------3--3-3/5-5-|
    *  *  *  *  * *  *        
eb|------------------------------------|
Bb|------------------------------------|
Gb|------------------------------------|
Db|-------------------------------5--7-|
Ab|-0--2--3--5--3--2--0--2--3-----5--7-|
Eb|----------------------------0--3--5-|
    *  *  *  *  *  *  *  *  *  * 
   
[ Tab from: http://www.guitaretab.com/i/iced-earth/152240.html ]
Riff 1a
eb|--------------------------|
Bb|--------------------------|
Gb|--------/9---9-8----(8)\--|
Db|-7--7\--/9---9-8----(8)\--|
Ab|-7--7\--/7---7-6----(6)\--|
Eb|-5--5\-----0--------------|
              *
    "Come into my world..."
eb|----------------------------------|
Bb|----------------------------------|
Gb|--------/9---9-8----8-7--(7)\-5---|
Db|-7--7\--/9---9-8----8-7--(7)\-5-5-|
Ab|-7--7\--/7---7-6----6-5--(5)\-3-5-|
Eb|-5--5\-----0------0-------------3-|
              *      *           * *
eb|-----------------------|
Bb|-----------------------|
Gb|--------/9---9-8-------|
Db|-7--7\--/9---9-8-------|
Ab|-7--7\--/7---7-6----77-|
Eb|-5--5\-----0--------55-|
              *
eb|----------------------------------|
Bb|----------------------------------|
Gb|--------/9---9-8----8-7--(7)\-5---|
Db|-7--7\--/9---9-8----8-7--(7)\-5-5-|
Ab|-7--7\--/7---7-6----6-5--(5)\-3-5-|
Eb|-5--5\-----0------0-------------3-|
              *      *           * * 



Riff 7
eb|----------------------|
Bb|----------------------|
Gb|-9-----9-8----7---5---|
Db|-9-----9-8----7---5-5-|
Ab|-7---0-7-6----5---3-5-|
Eb|--------------------3-|
        *            
eb|----------------------------------|
Bb|----------------------------------|
Gb|-9-----9-8----7---5------5--------|
Db|-9-----9-8----7---5-5----5--5--7\-|
Ab|-7-----7-6----5---3-5----3--5--7\-|
Eb|--------------------3-------3--5\-|

-------------------------------------------------

9. 1776
Tuning: Eb

Riff 1 (whenever this riff is played, the first bar is this: 
eb|-----------------------------------|
Bb|-----------------------------------|
Gb|-----------------------------------|
Db|-------9-------9--12-11-12-11-9--7-|
Ab|-------7-------7--10--9-10--9-7--5-|
Eb|-0-000---0-000---------------------|
    * ***   * ***                     

The rest is played like this: 

Guitar 1                           Final time
eb|--------------------------------|---------|
Bb|--------------------------------|---------|
Gb|--------------------------------|---------|
Db|-------9-------9--5--4-5-4------|-5-4-5-4-|
Ab|-------7-------7-----------7--5-|-3-2-5-4-|
Eb|-0-000---0-000------------------|---------|
    * ***   * ***                     

Guitar 2                            Final time 
eb|---------------------------------|---------|
Bb|---------------------------------|---------|
Gb|---------------------------------|---------|
Db|-------9-------9--9--7-9-7-------|-5-4-5-4-|
Ab|-------7-------7-----------10--9-|-3-2-5-4-|
Eb|-0-000---0-000-------------------|---------|
    * ***   * ***        
       

Riff 2
eb|-------------------------------------------------|
Bb|-------------------------------------------------|
Gb|-------------------------------------------------|
Db|-------------------------------------------------|
Ab|-------------------------------------------------|
Eb|-0-000-0-0-0-0-000-0-0-0-0-000-0-0-0-0-000-0-0-0-|
    * *** * * * * *** * * * * *** * * * * *** * * * 

Riff 3
Guitar 1                          
eb|--------------------------------------|
Bb|--------------------------------------|
Gb|--------------------------------------|
Db|-------9-------9-------9--------------|
Ab|-------7-------7-------7--7-770-5-550-|
Eb|-0-000---0-000---0-000----------------|
    * ***   * ***   * ***    * *** * ***
eb|------------------------------|
Bb|------------------------------|
Gb|------------------------------|
Db|-5-------5-------5-------5--7-|
Ab|-3-3-333-3-3-333-3-3-333-3--5-|
Eb|------------------------------|
      * ***   * ***   * ***

Final time:
eb|-----------------------------------|
Bb|-----------------------------------|
Gb|-----------------------------------|
Db|-5-------5-------5-------5----7----|
Ab|-3-3-333-3-3-333-3-3-333-3--0-5--0-|
Eb|-----------------------------------|
      * ***   * ***   * ***

Guitar 2
eb|------------------------------------|
Bb|------------------------------------|
Gb|------------------------------------|
Db|-9---7---5---7--4--4h5p4----4-------|
Ab|-------------------------7----7-5-7-|
Eb|------------------------------------|

Guitar 3 (Comes in the 3rd time)
eb|------------------------------------|
Bb|------------------------------------|
Gb|-7---6-------6----------------------|
Db|---------9------7--7h9p7-5--7-5-4-5-|
Ab|------------------------------------|
Eb|------------------------------------|



Riff 4 (Solo Rhythm)
eb|---------------------------|
Bb|---------------------------|
Gb|---------------------------|
Db|-9----9----------7----7----|
Ab|-7----7--6----6--5----5--4-|
Eb|---------7----7----------5-|

eb|-----------------------------------|
Bb|-----------------------------------|
Gb|-----------------------------------|
Db|----5----5--5----5--7----7--9----9-|
Ab|-4--3----3--5----5--7----7--9----9-|
Eb|-5----------3----3--5----5--7----7-|

eb|---------------------------|
Bb|---------------------------|
Gb|---------------------------|
Db|-9----9----------7----7----|
Ab|-7----7--6----6--5----5--4-|
Eb|---------7----7----------5-|

eb|--------------------------------------|
Bb|--------------------------------------|
Gb|--------------------------------------|
Db|----5----5--5----5--7----7--9---------|
Ab|-4--3----3--5----5--7----7--9---------|
Eb|-5----------3----3--5----5--7----//\\-|


Solo
Guitar 1
eb|----------------------------------------------|
Bb|----------17--16--17/20--19tr20-19\17-17--17--|
Gb|------16--------------------------------------|
Db|-14~------------------------------------------|
Ab|----------------------------------------------|
Eb|----------------------------------------------|

eb|-17--19--20-19-20-19\--10~----10/15-15-15--|
Bb|-------------------------------------------|
Gb|-------------------------------------------|
Db|-------------------------------------------|
Ab|-------------------------------------------|
Eb|-------------------------------------------|

eb|-15-14/17-17--19--20-19-17-|
Bb|---------------------------|
Gb|---------------------------|
Db|---------------------------|
Ab|---------------------------|
Eb|---------------------------|

eb|-17\15-15-15--20-19--19-20-19-17--17\14-14-17-14-|
Bb|-------------------------------------------------|
Gb|-------------------------------------------------|
Db|-------------------------------------------------|
Ab|-------------------------------------------------|
Eb|-------------------------------------------------|

eb|-(14)\12-12--12-14-12-10---10-10-10--10/15-15-15--\7-7-7-|
Bb|---------------------------------------------------------|
Gb|---------------------------------------------------------|
Db|---------------------------------------------------------|
Ab|---------------------------------------------------------|
Eb|---------------------------------------------------------|

eb|-/15-15-14-15-17-15--/20-19-17tr19-19-17-19-15~-|
Bb|------------------------------------------------|
Gb|------------------------------------------------|
Db|------------------------------------------------|
Ab|------------------------------------------------|
Eb|------------------------------------------------|



Guitar 2
eb|----------------------------------------------|
Bb|----------17--16--17/20--19tr20-19\17-17--17--|
Gb|------16--------------------------------------|
Db|-14~------------------------------------------|
Ab|----------------------------------------------|
Eb|----------------------------------------------|

eb|-17--19--20-19-20-19\---------------------|
Bb|-----------------------12~---12/15-15-15--|
Gb|------------------------------------------|
Db|------------------------------------------|
Ab|------------------------------------------|
Eb|------------------------------------------|

eb|---------------------------|
Bb|-15-14/19-19--20--22-20-19-|
Gb|---------------------------|
Db|---------------------------|
Ab|---------------------------|
Eb|---------------------------|

eb|--------------------------------------------------|
Bb|-19\17-17-17--22-20--20-22-20-19--19\15-15-19-15--|
Gb|--------------------------------------------------|
Db|--------------------------------------------------|
Ab|--------------------------------------------------|
Eb|--------------------------------------------------|

eb|----------------------------------------------------------|
Bb|-(15)\13-13---13-15-13-12---12-12-12--12/15-15-15--\8-8-8-|
Gb|----------------------------------------------------------|
Db|----------------------------------------------------------|
Ab|----------------------------------------------------------|
Eb|----------------------------------------------------------|

eb|------------------------------------------------|
Bb|-/20-20-19-17-19-17--/22-20-19tr20-20-19-20-17~-|
Gb|------------------------------------------------|
Db|------------------------------------------------|
Ab|------------------------------------------------|
Eb|------------------------------------------------|

End Solo

Play Riff 1
Play Riff 2
Play Riff 3  w/ this addition:

Guitar 4 & 5 (Guitar 5 plays top notes)
eb|--9b10~-----9~----7~-----9--5-5h7p5-----5----------------5-7--9-|
Bb|-10b12~----10~----8~----10--7-7h8p7-8~--7-8-7-8~-----7-8-7-8-10-|
Gb|------------------------------------9~----9-7-9~---9-7-9--------|
Db|--------------------------------------------------10------------|
Ab|----------------------------------------------------------------|
Eb|----------------------------------------------------------------|

eb|-10~-----9~----7~-----9--5-5h7p5-----5-----|
Bb|-12~----10~----8~----10--7-7h8p7-8~--7-8-7-|
Gb|---------------------------------9~----9-7-|
Db|-------------------------------------------|
Ab|-------------------------------------------|
Eb|-------------------------------------------|

eb|-------------------------------|
Bb|-8-7-8-7-----------------------|
Gb|-9-7-9-7--9-7--9-7-5-7-5-------|
Db|---------10-9-10-9-7-9-7--9-9--|
Ab|-------------------------10-7~-|
Eb|-------------------------------|



Riff 5 (Solo Rhythm)
eb|-----------------------------------|
Bb|-----------------------------------|
Gb|-----------------------------------|
Db|-9--------9-----------7--------7---|
Ab|-7--------7--6--------5--------5-4-|
Eb|-------------7-------------------5-|

eb|------------------------------------------|
Bb|------------------------------------------|
Gb|------------------------------------------|
Db|-5----------------------------------------|
Ab|-3--------5--------7--------9-------------|
Eb|----------3--------5--------7--------//\\-|


Solo (flute arranged for guitar)
Guitar 1
eb|--------------------------------------------------------|
Bb|-17--20-19-20--16--20-19-20--15--19-17-19--14--19-17-19-|
Gb|--------------------------------------------------------|
Db|--------------------------------------------------------|
Ab|--------------------------------------------------------|
Eb|--------------------------------------------------------|

eb|-----------------------------------------------------------|
Bb|-13--17-15-17--12--17-15-17--10----13--8--10--12----16--19-|
Gb|-----------------------------------------------------------|
Db|-----------------------------------------------------------|
Ab|-----------------------------------------------------------|
Eb|-----------------------------------------------------------|

Guitar 2
eb|-15--19-17-19--14--19-17-19--14--17-15-17--12--17-15-17-|
Bb|--------------------------------------------------------|
Gb|--------------------------------------------------------|
Db|--------------------------------------------------------|
Ab|--------------------------------------------------------|
Eb|--------------------------------------------------------|

eb|-12--15-14-15--10--15-14-15--8----12--10--12--11----14--17-|
Bb|-----------------------------------------------------------|
Gb|-----------------------------------------------------------|
Db|-----------------------------------------------------------|
Ab|-----------------------------------------------------------|
Eb|-----------------------------------------------------------|


End solo


Play Riff 1  with this addition:
Flute (arranged for guitar)
eb|-19p15----------15-19p15----------15-|
Bb|-------17----17----------17----17----|
Gb|----------16----------------16-------|
Db|-------------------------------------| ----|
Ab|-------------------------------------|     |
Eb|-------------------------------------|     |
                                              |--> Play 2x
eb|-19h20p19-17h19p17-15h17p15-14h15h17-|     |
Bb|-------------------------------------|     |
Gb|-------------------------------------| ----|
Db|-------------------------------------|
Ab|-------------------------------------|
Eb|-------------------------------------|

eb|-19p15----------15-19p15----------15-|
Bb|-------17----17----------17----17----|
Gb|----------16----------------16-------|
Db|-------------------------------------|
Ab|-------------------------------------|
Eb|-------------------------------------|

eb|-19h20p19-17h19p17-15h17p15-14h15p14-|
Bb|-------------------------------------|
Gb|-------------------------------------|
Db|-------------------------------------|
Ab|-------------------------------------|
Eb|-------------------------------------|

eb|-12h14p12-10h12p10-8h10p8----------|
Bb|--------------------------12p10-12-|
Gb|-----------------------------------|
Db|-----------------------------------|
Ab|-----------------------------------|
Eb|-----------------------------------|

Repeat above
 

Harmony Flute (arranged for guitar, comes in 2nd time)
eb|-12p7-------7-12p7-------7-|
Bb|------8---8--------8---8---|
Gb|--------9------------9-----|
Db|---------------------------| ----------|
Ab|---------------------------|           |
Eb|---------------------------|           |
                                          |--> Play 2x
eb|-12h14p12-10h12p10-8h10p8-7----7--|    |
Bb|----------------------------10----|    |
Gb|----------------------------------| ---|
Db|----------------------------------|
Ab|----------------------------------|
Eb|----------------------------------|

eb|-12p7-------7-12p7-------7-|
Bb|------8---8--------8---8---|
Gb|--------9------------9-----|
Db|---------------------------|
Ab|---------------------------|
Eb|---------------------------|

eb|-12h14p12-10h12p10-8h10p8-7h8p7-|
Bb|--------------------------------|
Gb|--------------------------------|
Db|--------------------------------|
Ab|--------------------------------|
Eb|--------------------------------|

eb|-5h7p5-3h5p3-2h3p2-2p0-2-|
Bb|-------------------------|
Gb|-------------------------|
Db|-------------------------|
Ab|-------------------------|
Eb|-------------------------|


Ending (Harmony notes on top):
eb|---0---|
Bb|---8~--|
Gb|-------|
Db|-------|
Ab|---2---|
Eb|---0---|

--------------------------------------------------

10. BLESSED ARE YOU

Tuning:  Eb

Riff 1 
Guitar 1 (Clean)
eb|---------5--------------------------|
Bb|-------6---6-------5-----5---6------|
Gb|-----7-------7-------7---------7----|
Db|---7-----------7-------7---------7--|
Ab|-5----------------------------------|
Eb|------------------------------------|
   "Pure ambition..."
eb|---------5--------------------------|
Bb|-------6---6-------5-----5---6------|
Gb|-----7-------7-------7---------7p5--|
Db|---7-----------7-------7------------|
Ab|-5----------------------------------|
Eb|------------------------------------|

Two guitars for the next part:
Guitar 1 (Clean)
eb|------6--------6-----------6----------6-|
Bb|--------6--------6-----------6------6---|
Gb|----------------------------------------|
Db|----------------------------------------|
Ab|---5---------5----------5---------5-----|
Eb|-6---------6----------6---------6-------|

Guitar 2 (Acoustic)
eb|-------0-------------------0--------------|
Bb|-----3---3---------------3---3----------6-|
Gb|-----------3-------------------3--------7-|
Db|----------------------------------------7-|
Ab|------------------------------------------|
Eb|------------------------------------------|

 

Riff 2 (Distortion)
eb|-------------------|
Bb|-------------------|
Gb|-------------------|
Db|-7--7-5--7----7-5--|
Ab|-5--5-3--5----5-3--|
Eb|-------------------|
       * *
  "Blessed are you..."
eb|---------------------|
Bb|---------------------|
Gb|---------------------|
Db|-7--7-5--7----7-5----|
Ab|-5--5-3--5----5-3--0-|
Eb|---------------------|
       * *            *
  "Blessed am I..."     x2      
eb|----------------------|
Bb|----------------------|
Gb|----------------------|
Db|-3--3----3----3--5--5-|
Ab|-1--1-0--1----1--3--3-|
Eb|----------------------|
       * *
  "Children of the night..."

Lead into next section:
eb|-----|
Bb|-----|
Gb|-----|
Db|--7--|
Ab|--5--|
Eb|-----|

Play Riff 1    but guitar 2 plays this:
Guitar 2 (Acoustic)
eb|-8-6h8p6p5---5----|
Bb|-----------8---6~-|
Gb|------------------|
Db|------------------|
Ab|------------------|
Eb|------------------|

eb|-----5---------|
Bb|-6-8---8-6-5---|
Gb|-------------7-|
Db|---------------|
Ab|---------------|
Eb|---------------|


Play Riff 2    "Blessed are you..."

Riff 3 
[Note: on the live version, guitar 2 plays the open Db string
during the second part.]

Guitar 1                         x2                        x2
eb|-------------------------------|-------------------------|
Bb|-------------------------------|-------------------------|
Gb|-------------------------------|-------------------------|
Db|-----7---7-5-------------------|-3-------3---3-----3-5-5-|
Ab|-5-5---5-----8----5-8-5-8-7-5\-|-1-111-0-1---1-111-1-3-3-|
Eb|-------------------------------|-------------------------|
    * *   *          *   *          * *** *     * ***
Guitar 2                           x2                        x2
eb|---------------------------------|-------------------------|
Bb|---------------------------------|-------------------------|
Gb|---------------------------------|-------------------------|
Db|-----10---10-8-7----7---7--------|-3-------3---3-----3-5-5-|
Ab|-8-8----8---------8---8----10-8\-|-1-111-0-1---1-111-1-3-3-|
Eb|---------------------------------|-------------------------|
    * *    *         *   *            * *** *     * ***


Riff 4 (Solo Rhythm)
eb|---------------------------------|
Bb|---------------------------------|
Gb|---------------------------------|
Db|-7-------8-------5-----7---------|  -----|
Ab|-5-5-5-5-5-5-5-5-5-5-5-5-5-5-5-5-|       |
Eb|---------------------------------|       |
      * * *   * * *   * *   * * * *         |
eb|----------------------------------|      |
Bb|----------------------------------|      |
Gb|----------------------------------|      |
Db|-7-------8-------5-----7----------|      |
Ab|-5-5-5-5-5-5-5-5-5-5-5-5-5-5-5500-|      |
Eb|----------------------------------|      |
      * * *   * * *   * *   * * ****        |
eb|---------------------------------|       |-----> Play 2x
Bb|---------------------------------|       |
Gb|---------------------------------|       |
Db|-5-------6-------3-----5---------|       |
Ab|-3-3-3-3-3-3-3-3-3-3-3-3-3-3-3-3-|       |
Eb|---------------------------------|       | 
      * * *   * * *   * *   * * * *         |
eb|----------------------------------|      |
Bb|----------------------------------|      |
Gb|----------------------------------|      |
Db|-5-------6-------3-----5----------| -----|
Ab|-3-3-3-3-3-3-3-3-3-3-3-3-3-3-3300-|
Eb|----------------------------------|
      * * *   * * *   * *   * * ****
eb|-----------------------------------|
Bb|-----------------------------------|
Gb|-----------------------------------|
Db|------3----------------5-----------|
Ab|-1-11---1----1-00-3-33---3----3-00-|
Eb|-----------------------------------|
    * **          ** * **          **
eb|-----------------------------------|
Bb|-----------------------------------|
Gb|-----------------------------------|
Db|-5-7----7----7----7\5----5----5----|
Ab|-3-5-00-5----5-00-5\3-00-3----3-00-|
Eb|-----------------------------------|
        **        **     **        **
eb|-----------------------------------|
Bb|-----------------------------------|
Gb|-----------------------------------|
Db|------3----------------5-----------|
Ab|-1-11---1----1-00-3-33---3----3-00-|
Eb|-----------------------------------|
    * **          ** * **          **
eb|---------------------------------|
Bb|---------------------------------|
Gb|---------------------------------|
Db|-5\7----7----7----7\5----5----5--|
Ab|-3\5-00-5----5-00-5\3-00-3----3--|
Eb|---------------------------------|
        **        **     **

Solo
Guitar 1
eb|----------------------------------------------|
Bb|----------------------------------------------|
Gb|-/7~----7-9-10tm-12tm-14tm-15tm-14~----15-14~-|
Db|----------------------------------------------|
Ab|----------------------------------------------|
Eb|----------------------------------------------|

eb|-----------------------------------------------|
Bb|-----------------------------------------------|
Gb|-12-15-14-12-10-14-12-10-9-12-10-9-7-10-9-7-5~-|
Db|-----------------------------------------------|
Ab|-----------------------------------------------|
Eb|-----------------------------------------------|

eb|--------------------------------------------------|
Bb|--------------------------------------------------|
Gb|-5p3h5-/7~----7p5h7-/9~----9p7h9-/10--12--10--9~--|
Db|--------------------------------------------------|
Ab|--------------------------------------------------|
Eb|--------------------------------------------------|
         
eb|------10h12p10--------10h13p10--------10h12p10------|
Bb|-10h11--------11p10h11--------11p10h11--------11p10-|
Gb|----------------------------------------------------|
Db|----------------------------------------------------|
Ab|----------------------------------------------------|
Eb|----------------------------------------------------|

eb|-12p10-13p10-15p10-13p10-12p10-13-|
Bb|----------------------------------|
Gb|----------------------------------|
Db|----------------------------------|
Ab|----------------------------------|
Eb|----------------------------------|

eb|------10h12p10------10--12--13-|
Bb|-10h11--------11p10------------|
Gb|-------------------------------|
Db|-------------------------------|
Ab|-------------------------------|
Eb|-------------------------------|

eb|-13b15--(15)r13-13-12-10----------------------------------|
Bb|-------------------------13~----13\----11----13p11p10-----|
Gb|------------------------------------------------------12~-|
Db|----------------------------------------------------------|
Ab|----------------------------------------------------------|
Eb|----------------------------------------------------------|

eb|------------------10-12-13p10-12-15p12------12-|
Bb|---------10-11-13---------------------13--13---|
Gb|-9-10-12--------------------------------12-----|
Db|-----------------------------------------------|
Ab|-----------------------------------------------|
Eb|-----------------------------------------------|

eb|-15p12/13-13-17p13------12-17p13-13\10-|
Bb|------------------15--15---------------|
Gb|--------------------14-----------------|
Db|---------------------------------------|
Ab|---------------------------------------|
Eb|---------------------------------------|

Guitar 2
eb|----------------------------------------------|
Bb|--------6-8-10tm-11tm-13tm-15tm-13~----15-13~-|
Gb|-/7~------------------------------------------|
Db|----------------------------------------------|
Ab|----------------------------------------------|
Eb|----------------------------------------------|

eb|-----------------------------------------------|
Bb|-11-15-13-11-10-13-11-10-8-12-10-8-6-10-8-6-5~-|
Gb|-----------------------------------------------|
Db|-----------------------------------------------|
Ab|-----------------------------------------------|
Eb|-----------------------------------------------|

eb|------------------------------------------------|
Bb|-5p3h5-/6~----6p5h6-/8~----8p6h8-/10--11--10-8~-|
Gb|------------------------------------------------|
Db|------------------------------------------------|
Ab|------------------------------------------------|
Eb|------------------------------------------------|

eb|------17h19p17---------17h20p17--------17h19p17------|
Bb|-17h18--------18p17h18---------18p17h18--------18p17-|
Gb|-----------------------------------------------------|
Db|-----------------------------------------------------|
Ab|-----------------------------------------------------|
Eb|-----------------------------------------------------|

eb|-19p17-20p17-22p17-20p17-19p17-20-|
Bb|----------------------------------|
Gb|----------------------------------|
Db|----------------------------------|
Ab|----------------------------------|
Eb|----------------------------------|

eb|------17h19p17------17--19--20-|
Bb|-17h18--------18p17------------|
Gb|-------------------------------|
Db|-------------------------------|
Ab|-------------------------------|
Eb|-------------------------------|

eb|-20b22--(22)r20-20-19-17------------------------------|
Bb|-------------------------20~----20\-------------------|
Gb|-------------------------------------10----12p10p9-9~-|
Db|------------------------------------------------------|
Ab|------------------------------------------------------|
Eb|------------------------------------------------------|

eb|------------------10-12-13p10-12-15p12------12-|
Bb|---------10-11-13---------------------13--13---|
Gb|-9-10-12--------------------------------12-----|
Db|-----------------------------------------------|
Ab|-----------------------------------------------|
Eb|-----------------------------------------------|

eb|-15p12/13-13-17p13------12-17p13-13\10-|
Bb|------------------15--15---------------|
Gb|--------------------14-----------------|
Db|---------------------------------------|
Ab|---------------------------------------|
Eb|---------------------------------------|


Back to one guitar:
eb|-10-12-13-10--12-13-15--13--12tr13-|
Bb|-----------------------------------|
Gb|-----------------------------------|
Db|-----------------------------------|
Ab|-----------------------------------|
Eb|-----------------------------------|

eb|-13-12-13-10----10-10-13-12--12--12-10-|
Bb|---------------------------------------|
Gb|---------------------------------------|
Db|---------------------------------------|
Ab|---------------------------------------|
Eb|---------------------------------------|

eb|-10-12-13-10--12-13-15--13--12tr13-|
Bb|-----------------------------------|
Gb|-----------------------------------|
Db|-----------------------------------|
Ab|-----------------------------------|
Eb|-----------------------------------|

eb|-13-12-13-10----10-10-13-12--12--12p10--10-12--10-|
Bb|--------------------------------------10----------|
Gb|--------------------------------------------------|
Db|--------------------------------------------------|
Ab|--------------------------------------------------|
Eb|--------------------------------------------------|

Guitar 1
eb|-/13-12-10--|
Bb|------------|
Gb|------------|
Db|------------|
Ab|------------|
Eb|------------|

Guitar 2
eb|-/17-15-13--|
Bb|------------|
Gb|------------|
Db|------------|
Ab|------------|
Eb|------------|

End solo

Play Riff 2   "Blessed are you..."

Outro lead                               x2
eb|---------------------------------------|
Bb|-11p10----10----11--------11--11-10----|
Gb|-------10----------10~--------------10-|
Db|---------------------------------------|
Ab|---------------------------------------|
Eb|---------------------------------------|
                                   x2
eb|---------------------------------|
Bb|-13----11--10-11----13--13-11-10-|
Gb|---------------------------------|
Db|---------------------------------|
Ab|---------------------------------|
Eb|---------------------------------|

Harmony guitar:                       x2
eb|-10p8----8----10--------10--10-8----|
Bb|------10---------10~-------------10-|
Gb|------------------------------------|
Db|------------------------------------|
Ab|------------------------------------|
Eb|------------------------------------|
                                 x2
eb|-12----10--8-10----12--12-10-8-|
Bb|-------------------------------|
Gb|-------------------------------|
Db|-------------------------------|
Ab|-------------------------------|
Eb|-------------------------------|

---------------------------------------------------

11. PROPHECY
Tuning: Eb

Riff 1 (Clean, let notes ring)
eb|---------------------------------|
Bb|---------------------------------|
Gb|---7--10-----9---7-----7-----7---|
Db|-7---7---7-7---7---7-7---7-7---7-|
Ab|---------------------------------|
Eb|---------------------------------|
   "I can see clearly..."
eb|---------------------------------|
Bb|---------------------------------|
Gb|---7--10-----9---7-----7-----7---|
Db|-8---8---8-8---8---8-8---8-8---8-|
Ab|---------------------------------|
Eb|---------------------------------|
   "...attack on hallowed ground..."


Riff 2
Guitar 1 (Clean, let notes ring)
eb|---------------------------------|
Bb|---------------------------------|
Gb|-7-----7-----7-----7-----7---7---|
Db|---0-0---0-0---0-0---0-0---0---0-|
Ab|---------------------------------|
Eb|---------------------------------|
   "So heed my warning..."
eb|---------------------------------|
Bb|---------------------------------|
Gb|-5-----5-----5-----5-----5---5---|
Db|---0-0---0-0---0-0---0-0---0---0-|
Ab|---------------------------------|
Eb|---------------------------------|

eb|---------------------------------|
Bb|---------------------------------|
Gb|-3-----3-----3-----3-----3---3---|
Db|---0-0---0-0---0-0---0-0---0---0-|
Ab|---------------------------------|
Eb|---------------------------------|

eb|---------------------------------|
Bb|---------------------------------|
Gb|-2-----2-----2-----2-----2---2---|
Db|---0-0---0-0---0-0---0-0---0---0-|
Ab|---------------------------------|
Eb|---------------------------------|

Guitar 2 (Distortion)
eb|-------------------------------------|
Bb|-------------------------------------|
Gb|-7~-------7/9--7\5-5~--------5/7-5\3-|
Db|-------------------------------------|
Ab|-------------------------------------|
Eb|-------------------------------------|
   "So heed my warning..."
eb|-------------------------|
Bb|-------------------------|
Gb|-3~--------3/5-3\2-2~----|
Db|-------------------------|
Ab|-------------------------|
Eb|-------------------------|

Guitar 3 (Distortion)
eb|-------------------------------------|
Bb|-6~--------6/8-6\5-5~--------5/6-5\3-|
Gb|-------------------------------------|
Db|-------------------------------------|
Ab|-------------------------------------|
Eb|-------------------------------------|
   "So heed my warning..."
eb|-----------------------|
Bb|-3--------3--5/6-6~----|
Gb|-----------------------|
Db|-----------------------|
Ab|-----------------------|
Eb|-----------------------|



Riff 3 (Clean, let notes ring, Play 2x)
eb|----------------------------------|
Bb|----------------------------------|
Gb|-2-----0-----3-----0-----2---2----|
Db|---0-0---0-0---0-0---0-0---0---0--|
Ab|----------------------------------|
Eb|----------------------------------|
      "A sacred few..."            (Distortion)
eb|--------------------------------|--------|
Bb|--------------------------------|--------|
Gb|-2-----0-----3-----0-----2---2--|--------|
Db|---0-0---0-0---0-0---0-0---0----|-3----5-|
Ab|--------------------------------|-3----5-|
Eb|--------------------------------|--------|
   "A sacred few..."


Play Riff 1   "Ten thousand years..."
Play Riff 2   "So there is hope you see..."
Play Riff 3   "Oppressed for centuries..."

Riff 4 (Distortion)
eb|--------------------|
Bb|--------------------|
Gb|--------------------|
Db|-7-777-7----7-777-7-|
Ab|-5-555-5----5-555-5-|
Eb|--------------------|

eb|----------------------------------------|
Bb|----------------------------------------|
Gb|----------------------------------------|
Db|-------5------------5---3---5-----6-5-3-|
Ab|-3-333-3--3-333-3-3---3---3---3-3-------|
Eb|----------------------------------------|
    * ***    * ***   *   *   *   * *



Riff 5
Guitar 1                         x2 
eb|-------------------------------|
Bb|-------------------------------|
Gb|-------------------------------|
Db|-----------7---5---7-----5-7-8-|
Ab|-5-555-5-5---5---5---5-5-------|
Eb|-------------------------------|
    * ***   *   *   *   * *
                                 x2
eb|-------------------------------|
Bb|-------------------------------|
Gb|-------------------------------|
Db|-----------5---3---5-----6-5-3-|
Ab|-3-333-3-3---3---3---3-3-------|
Eb|-------------------------------|
    * ***   *   *   *   * *

Guitar 2 (Comes in the second time)
NOTE: Harmony notes were dubbed in, so the
pedal notes shown (notes on Ab string) are
just played by first guitar.
                                     x2
eb|-----------------------------------|
Bb|-----------------------------------|
Gb|-----------------------------------|
Db|-----------10---8---10-----8-10-12-|
Ab|-5-555-5-5----5---5----5-5---------|
Eb|-----------------------------------|
    * *** * *  * * * *  * * * *  *  *
                                  x2
eb|--------------------------------|
Bb|--------------------------------|
Gb|--------------------------------|
Db|-----------8---7---8-----10-8-7-|
Ab|-3-333-3-3---3---3---3-3--------|
Eb|--------------------------------|
    * *** * * * * * * * * *  * * *




Riff 6
eb|-----------------------|
Bb|-----------------------|
Gb|-----------------------|
Db|-7-----7-----7----8--5-|
Ab|-5-555-5-5-5-5----6--3-|
Eb|-----------------------|
      ***   * *
  "We'll take their identity..."
eb|-----------------------|
Bb|-----------------------|
Gb|-----------------------|
Db|-7-----7-----7----8--5-|
Ab|-5-555-5-5-5-5----6--3-|
Eb|-----------------------|
      ***   * *
eb|---------------------------------|
Bb|---------------------------------|
Gb|---------------------------------|
Db|-10----10--10-12\10-8-----8-10\8-|
Ab|--8-888-8---8-10\-8-6-666-6--8\6-|
Eb|---------------------------------|
       ***               ***
  "All the while..."
eb|-----------------------|
Bb|-----------------------|
Gb|-----------------------|
Db|-7-----7-----7----8--5-|
Ab|-5-555-5-5-5-5----6--3-|
Eb|-----------------------|
      ***   * *


Riff 7
Guitar 1                         x2
eb|-------------------------------|
Bb|-------------------------------|
Gb|-------------------------------|
Db|-------7-----5-----7-----5-7-8-|
Ab|-5-555---555---555---555-------|
Eb|-------------------------------|
    * ***   ***   ***   ***      x2
eb|-------------------------------|
Bb|-------------------------------|
Gb|-------------------------------|
Db|-------5-----3-----6-----6-5-3-|
Ab|-3-333---333---333---333-------|
Eb|-------------------------------|
    * ***   ***   ***   ***

Guitar 2 (Comes in the second time)
NOTE: Harmony notes were dubbed in, so the
pedal notes shown (notes on Ab string) are
just played by first guitar.
                                     x2
eb|-----------------------------------|
Bb|-----------------------------------|
Gb|-----------------------------------|
Db|-------10-----8-----10-----8-10-12-|
Ab|-5-555----555---555----555---------|
Eb|-----------------------------------|
    * ***  * *** * ***  * *** *  *  *
                                   x2
eb|---------------------------------|
Bb|---------------------------------|
Gb|---------------------------------|
Db|-------8-----7-----10-----10-8-7-|
Ab|-3-333---333---333----333--------|
Eb|---------------------------------|
    * *** * *** * ***  * ***  * * *



Play Riff 6   Solo rhythm

Solo
eb|--------------------------15h17-19p17-----------------------|
Bb|------------------15h17h18-----------19-16------------------|
Gb|----------14h15h17------------------------18-15~--17-15-14~-|
Db|-/14h15h17--------------------------------------------------|
Ab|------------------------------------------------------------|
Eb|------------------------------------------------------------|

(Harmony guitar in () )
eb|-(6--8-10---8--6--------------------------------------------|
Bb|--8-10-11--10--8--10-10--11-10-8~)--------------------------|
Gb|------------------10-10--12-10-9~---9h10-10/12~--10-10p9-7~-|
Db|------------------------------------------------------------|
Ab|------------------------------------------------------------|
Eb|------------------------------------------------------------|

eb|------------------------------------------------|
Bb|------------------------------------------------|
Gb|-9-7-9/10--10/12--12/14--14/17-17b19-17-15-14~--|
Db|------------------------------------------------|
Ab|------------------------------------------------|
Eb|------------------------------------------------|

(Harmony guitar plays top notes)
eb|-15-17-13-17----17-15-17-13-17-15-17-13-17----17-|
Bb|-17-18-15-18-17-18-17-18-15-18-17-18-15-18-17-18-|
Gb|-------------17----------------------------17----|
Db|-------------------------------------------------|
Ab|-------------------------------------------------|
Eb|-------------------------------------------------|

eb|-12h13p12------12-13-15p12----------13-|
Bb|---------13--13-----------13------13---|
Gb|-----------14---------------12--12-----|
Db|------------------------------14-------|
Ab|---------------------------------------|
Eb|---------------------------------------|

eb|-17p13----------13-17-131313-17-131313-|
Bb|------15------15-----------------------|
Gb|--------14--14-------------------------| 
Db|----------15---------------------------|
Ab|---------------------------------------|
Eb|---------------------------------------|

eb|-18p13------13-18-131313-18-131313-|
Bb|------15--15-----------------------|
Gb|--------14-------------------------| 
Db|-----------------------------------|
Ab|-----------------------------------|
Eb|-----------------------------------|

eb|-17-131313-15-131313-17-131313-18p13\-|
Bb|--------------------------------------|
Gb|--------------------------------------| 
Db|--------------------------------------|
Ab|--------------------------------------|
Eb|--------------------------------------|

eb|-/17-17-17-18-18-18-22b24r22-22b24-22~~-|
Bb|----------------------------------------|
Gb|----------------------------------------|
Db|----------------------------------------|
Ab|----------------------------------------|
Eb|----------------------------------------|

End solo


Play Riff 7


Riff 8                             x2
eb|---------------------------------|
Bb|---------------------------------|
Gb|---------------------------------|
Db|-7-----7-----7-----7-----8-8-5-5-|
Ab|-5-555-5-5-5-5-5-5-5-555-6-6-3-3-|
Eb|---------------------------------|
      ***   * *   * *   ***    
  "Assasins we will be..."             
eb|--------------------------------------|
Bb|--------------------------------------|
Gb|--------------------------------------|
Db|-10-----10-----12\10-8-----8-----10\8-|
Ab|--8-888--8-8-8-10\-8-6-666-6-6-6--8\6-|
Eb|--------------------------------------|
       ***    * *         ***   * *
   "Jesus Christ..."
                                   x3
eb|---------------------------------|
Bb|---------------------------------|
Gb|---------------------------------|
Db|-7-----7-----7-----7-----8-8-5-5-|
Ab|-5-555-5-5-5-5-555-5-555-6-6-3-3-|
Eb|---------------------------------|
      ***   * *   ***   ***    
   "The Domino Decree.."
eb|--------------------------------------|
Bb|--------------------------------------|
Gb|--------------------------------------|
Db|-10-----10-----12\10-8-----8-----10\8-|
Ab|--8-888--8-8-8-10\-8-6-666-6-6-6--8\6-|
Eb|--------------------------------------|
       ***    * *         ***   * *
   "If it takes..."
eb|----------------------------------|
Bb|----------------------------------|
Gb|----------------------------------|
Db|-7-----7-----7-----7-----8--5--7--|
Ab|-5-555-5-555-5-555-5-5-5-6--3--5--|
Eb|----------------------------------|
      ***   ***   ***   * *    
   "We never..."


Play Riff 1  Solo Rhythm

Solo
Guitar 1
eb|---------------------------------------------|
Bb|-/10~----10h11-10~----10-10-11~----11h13-11~-|
Gb|---------------------------------------------|
Db|---------------------------------------------|
Ab|---------------------------------------------|
Eb|---------------------------------------------|

eb|----------------------------------------|
Bb|-/13-13-13-13/15-13-11-10~----10h11-10~-|
Gb|----------------------------------------|
Db|----------------------------------------|
Ab|----------------------------------------|
Eb|----------------------------------------|

eb|--------------------------------|
Bb|-/6~---/10~----11~----11h13-11~-|
Gb|--------------------------------|
Db|--------------------------------|
Ab|--------------------------------|
Eb|--------------------------------|

eb|---------------------------------------------|
Bb|-----------------15-17-18-17-15--------------|
Gb|---------14-15-17--------------17-15-14------|
Db|-14-15-17------------------------------17-15-|
Ab|---------------------------------------------|
Eb|---------------------------------------------|

Guitar 2
eb|------------------------------------------|
Bb|-/10~----10h11-10~-------8-8~-----8h10-8~-|
Gb|------------------------------------------|
Db|------------------------------------------|
Ab|------------------------------------------|
Eb|------------------------------------------|

eb|------------------------------------|
Bb|-/6-6-6-6/8-6-5--/10~----10h11-10~--|
Gb|------------------------------------|
Db|------------------------------------|
Ab|------------------------------------|
Eb|------------------------------------|

eb|--------------------------------|
Bb|-/10~---13~----15~----17-18-17~-|
Gb|--------------------------------|
Db|--------------------------------|
Ab|--------------------------------|
Eb|--------------------------------|

eb|-----------------15-17-18-17-15---------------|
Bb|---------15-17-18--------------18-15----------|
Gb|-14-15-17----------------------------17-17-14-|
Db|----------------------------------------------|
Ab|----------------------------------------------|
Eb|----------------------------------------------|

End Solo


Play Riff 2    "And so our world..."
Guitar 3's ending for riff 2
eb|------------------------------|
Bb|-3--------3--5/6-6~-----8-6-5-|
Gb|------------------------------|
Db|------------------------------|
Ab|------------------------------|
Eb|------------------------------|


Ending (Clean)
eb|---------------5-----|
Bb|---------------6p5h6-|
Gb|---------------7-----|
Db|--7--5---------7-----|
Ab|--------8--7---5-----|
Eb|---------------------|

----------------------------------------------------

12. BIRTH OF THE WICKED
Tuning: Eb

Riff 1
Guitar 1
eb|-------------------------------------------------------|
Bb|-------------------------------------------------------|
Gb|-------------------------------------------------------|
Db|-------7--7/8-------8--8/10-------10-10\8-------8--8\7-|
Ab|-5-555-5--5/6-6-666-6--6/-8-8-888--8--8\6-6-666-6--6\5-|
Eb|-------------------------------------------------------|
    * ***        * ***         * ***         * ***
eb|-------------------------------------------------------|
Bb|-------------------------------------------------------|
Gb|-------------------------------------------------------|
Db|-------7--7/8-------8--8/10-------10-10\8-------8--8---|
Ab|-5-555-5--5/6-6-666-6--6/-8-8-888--8--8\6-6-666-6--6-0-|
Eb|-------------------------------------------------------|
    * ***        * ***         * ***         * ***
eb|----------------------------------|
Bb|----------------------------------|
Gb|----------------------------------|
Db|-------7-----7-7--8-----8-----8-8-|
Ab|-5-555-5-5-5-5-5--6-666-6-6-6-6-6-|
Eb|----------------------------------|
    * ***   * *        ***   * *      
eb|------------------------------------|
Bb|------------------------------------|
Gb|------------------------------------|
Db|-10-----10----10-10-8-----8-----8-8-|
Ab|--8-888--8-8-8-8--8-6-666-6-6-6-6-6-|
Eb|------------------------------------|
       ***    * *        ***   * *
eb|----------------------------------|
Bb|----------------------------------|
Gb|----------------------------------|
Db|-------7-----7-7--8-----8-----8-8-|
Ab|-5-555-5-5-5-5-5--6-666-6-6-6-6-6-|
Eb|----------------------------------|
    * ***   * *        ***   * *      
eb|------------------------------------|
Bb|------------------------------------|
Gb|------------------------------------|
Db|-10-----10----10-10-8-----8-----8---|
Ab|--8-888--8-8-8-8--8-6-666-6-6-6-6-0-|
Eb|------------------------------------|
       ***    * *        ***   * *

Guitar 2
eb|------------------------------------|
Bb|-7h8p7------------------------------|
Gb|-------8-7--8--7~----77-7h8p7----7~-|
Db|------------------------------10----|
Ab|------------------------------------|
Eb|------------------------------------|

eb|-------------------------------------------|
Bb|-------------------------------------------|
Gb|-77-7h8p7----7-----------------------------|
Db|----------10----10~----88-8h10p8-8-8~--8\7-|
Ab|-------------------------------------------|
Eb|-------------------------------------------|

Guitar 3 (Comes in the 3rd and 4th time)
eb|-9h10p9----------------------------------------|
Bb|--------11-10--11--10~----1010-10h11p10----10~-|
Gb|----------------------------------------12-----|
Db|-----------------------------------------------|
Ab|-----------------------------------------------|
Eb|-----------------------------------------------|

eb|--------------------------------------------------------|
Bb|-1010-10h11p10----10------------------------------------|
Gb|---------------12-----12~----1010-10h12p10-10-10~--10\9-|
Db|--------------------------------------------------------|
Ab|--------------------------------------------------------|
Eb|--------------------------------------------------------|


Riff 2
Guitar 1                           x4 
eb|---------------------------------|
Bb|---------------------------------|
Gb|---------------------------------|
Db|---------------------------------|
Ab|-5-555-5-555-5-555-5-555-5-6-5---|
Eb|-------------------------------6-|
    * *** * *** * *** * *** * * * * 
  "Daylight breaks hard..."

eb|---------------------------|
Bb|---------------------------|
Gb|---------------------------|
Db|--------5--5/-------8--8\7-|
Ab|--3-333-3--3/-6-666-6--6\5-|
Eb|---------------------------|
     * ***       * ***
   "But in this hour..."
eb|---------------------------------|
Bb|---------------------------------|
Gb|---------------------------------|
Db|---------------------------------|
Ab|-5-555-5-555-5-555-5-555-5-6-5---|
Eb|-------------------------------6-|
    * *** * *** * *** * *** * * * * 
   "...The Elder knew..."

Guitar 2                       x2
eb|-----------------------------|
Bb|-----------------------------|
Gb|-7--8--10--8--7----8p7----7~-|
Db|----------------10-----10----|
Ab|-----------------------------|
Eb|-----------------------------|

eb|--------------------------------------|
Bb|--------------------------------------|
Gb|-7------------------------------------|
Db|---10-8-10~----10-8-7-8~----8-7----7~-|
Ab|--------------------------------10----|
Eb|--------------------------------------|

Guitar 3                              x2
eb|------------------------------------|
Bb|-10--11--13--11--10----11p10----10~-|
Gb|--------------------12-------12-----|
Db|------------------------------------|
Ab|------------------------------------|
Eb|------------------------------------|

eb|------------------------------------------|
Bb|------------------------------------------|
Gb|-10-9----9~----9--------------9-----------|
Db|------12---------12-10-12~------12-10-12~-|
Ab|------------------------------------------|
Eb|------------------------------------------|


Riff 3 
Guitar 1
eb|---------------------------------|
Bb|---------------------------------|
Gb|---------------------------------|
Db|-7-----8-----5-----7-----7p5-7p5-|
Ab|-5-5-5-5-5-5-5-5-5-5-5-5-5-5-5-5-|
Eb|---------------------------------|
      * *   * *   * *   * *
eb|---------------------------------|
Bb|---------------------------------|
Gb|---------------------------------|
Db|-7-----8-----5-----7-----7p5-7---|
Ab|-5-5-5-5-5-5-5-5-5-5-5-5-5-5-5-0-|
Eb|---------------------------------|
      * *   * *   * *   * *
eb|---------------------------------|
Bb|---------------------------------|
Gb|---------------------------------|
Db|-5-----6-----3-----5-----5p3-5---|
Ab|-3-3-3-3-3-3-3-3-3-3-3-3-3-3-3-0-|
Eb|---------------------------------|
      * *   * *   * *   * *

1st ending:
eb|---------------------------------|
Bb|---------------------------------|
Gb|---------------------------------|
Db|-3-----3-----3-----3-----8p6-8p6-|
Ab|-1-1-1-1-1-1-1-1-1-1-1-0-6---6---|
Eb|---------------------------------|
      * *   * *   * *   * *
2nd ending:
eb|---------------------------------|
Bb|---------------------------------|
Gb|---------------------------------|
Db|-3-----3-----3-----3-----8p6-8---|
Ab|-1-1-1-1-1-1-1-1-1-1-1-0-6---6-0-|
Eb|---------------------------------|
      * *   * *   * *   * *

Guitar 2
eb|--------------------------------------------------------|
Bb|--------------------------------------------------------|
Gb|-7~---10-9----7~----10-9-10-9~----10-9-10-7~----7--10-9-|
Db|-----------10-------------------------------------------|
Ab|--------------------------------------------------------|
Eb|--------------------------------------------------------|

Guitar 3
eb|---------------------------------------------------------|
Bb|---------------------------------------------------------|
Gb|-10~--14-12-9-10~--14-12-14-12~--14-12-14-10~--10/-14-12-|
Db|---------------------------------------------------------|
Ab|---------------------------------------------------------|
Eb|---------------------------------------------------------|



Play Riff 2    "Child of the wicked..."
Play Riff 3    "So, behold the birth..."


Riff 4
eb|---------------------------------|
Bb|---------------------------------|
Gb|---------------------------------|
Db|---------------------------------|
Ab|-5-555-5-555-5-555-5-555-5-6-5---|
Eb|-------------------------------6-|
    * *** * *** * *** * *** * * * * 
eb|--------------------------------|
Bb|--------------------------------|
Gb|--------------------------------|
Db|-------------------------6h7-6~-|
Ab|-5-555-5-555-555-6-5-6-8--------|
Eb|--------------------------------|
    * *** * *** *** * * * *


Riff 4a (Solo Rhythm)
eb|---------------------------------|
Bb|---------------------------------|
Gb|---------------------------------|
Db|---------------------------------| ----|
Ab|-5-555-5-555-5-555-5-555-5-6-5---|     |
Eb|-------------------------------6-|     |
    * *** * *** * *** * *** * * * *       |
eb|--------------------------------|      |--> Play 2x
Bb|--------------------------------|      |
Gb|--------------------------------|      |
Db|-------------------------6h7-6~-| -----|
Ab|-5-555-5-555-555-6-5-6-8--------|
Eb|--------------------------------|
    * *** * *** *** * * * *
eb|---------------------------|
Bb|---------------------------|
Gb|---------------------------|
Db|-------5--5/8-------8--8---|
Ab|-3-333-3--3/6-6-666-6--6-0-|
Eb|---------------------------|
    * ***        * ***
eb|---------------------------------|
Bb|---------------------------------|
Gb|---------------------------------|
Db|---------------------------------| ----|
Ab|-5-555-5-555-5-555-5-555-5-6-5---|     |
Eb|-------------------------------6-|     |
    * *** * *** * *** * *** * * * *       |
eb|--------------------------------|      |--> Play 2x
Bb|--------------------------------|      |
Gb|--------------------------------|      |
Db|-------------------------6h7-6~-| -----|
Ab|-5-555-5-555-555-6-5-6-8--------|
Eb|--------------------------------|
    * *** * *** *** * * * *

eb|---------------------------|
Bb|---------------------------|
Gb|---------------------------|
Db|-------5--5/8-------8--8---| -----------|
Ab|-3-333-3--3/6-6-666-6--6-0-|            |
Eb|---------------------------|            |
    * ***        * ***                     |
eb|---------------------------------|      |--> Play 2x
Bb|---------------------------------|      |
Gb|---------------------------------|      |
Db|-7-----7-----7-----7-----7p5-7---| -----|
Ab|-5-555-5-555-5-555-5-555-5---5-0-|
Eb|---------------------------------|
      ***   ***   ***   ***


Solo
eb|--------------------------------------------------------|
Bb|-----------8---10-11-/13-11--10h11-10~~\----------------|
Gb|-/7~---7-8--------------------------------/7h8-7~--(7)\-|
Db|--------------------------------------------------------|
Ab|--------------------------------------------------------|
Eb|--------------------------------------------------------|

eb|------------------------------------------|
Bb|-/15--15-151515-/16-16-161616-/18-18-1818-|
Gb|------------------------------------------|
Db|------------------------------------------|
Ab|------------------------------------------|
Eb|------------------------------------------|

eb|------------------------------|
Bb|-20-18-16-15-16-15~-----------|
Gb|----------------14~----15-14\-|
Db|------------------------------|
Ab|------------------------------|
Eb|------------------------------|

eb|----------------------------------------|
Bb|-/8--10--11---13--15--16-15~----13--15~-|
Gb|---------------------------~------------|
Db|----------------------------------------|
Ab|----------------------------------------|
Eb|----------------------------------------|

eb|-----------------------------------------------------|
Bb|-15~----15-16-15~------------------------------------|
Gb|--------------------14-15-14~------------------------|
Db|--------------------------------16-17-16~--12b13r12~-|
Ab|-----------------------------------------------------|
Eb|-----------------------------------------------------|

eb|-----------14----14-15-17-15h17p15-14--------|
Bb|--------15----15----------------------15-15~-|
Gb|-----14--------------------------------------|
Db|---16----------------------------------------|
Ab|-17------------------------------------------|
Eb|---------------------------------------------|

eb|-14-15-17-15-17-15-14-15-17-15-17-15-14-15-17-15-14-15-|
Bb|-------------------------------------------------------|
Gb|-------------------------------------------------------|
Db|-------------------------------------------------------|
Ab|-------------------------------------------------------|
Eb|-------------------------------------------------------|

eb|-18-17-18-17-15-17-18-17-18-17-15-18-17-15-14-14-14-|
Bb|----------------------------------------------------|
Gb|----------------------------------------------------|
Db|----------------------------------------------------|
Ab|----------------------------------------------------|
Eb|----------------------------------------------------|

eb|-17p14-----------15-14-----------------------|
Bb|------15------15-------15/16-16~--18-16-15~\-|
Gb|--------14--14-------------------------------|
Db|----------16---------------------------------|
Ab|---------------------------------------------|
Eb|---------------------------------------------|

eb|-17p14----------14-17p14-1414-17p14-1515-|
Bb|------15------15-------------------------|
Gb|--------14--14---------------------------|
Db|----------16-----------------------------|
Ab|-----------------------------------------|
Eb|-----------------------------------------|

eb|-18p15-----------15-18p15-1515-18p15-1414-|
Bb|------16------16--------------------------|
Gb|--------15--15----------------------------|
Db|----------17------------------------------|
Ab|------------------------------------------|
Eb|------------------------------------------|

eb|-17p14----------14/18~----20-17-17~~~\-|
Bb|------15------15-----------------------|
Gb|--------14--14-------------------------|
Db|----------16---------------------------|
Ab|---------------------------------------|
Eb|---------------------------------------|

End Solo


Riff 1a
Guitar 1
eb|-------------------------------------------------------|
Bb|-------------------------------------------------------|
Gb|-------------------------------------------------------|
Db|-------7--7/8-------8--8/10-------10-10\8-------8--8\7-|
Ab|-5-555-5--5/6-6-666-6--6/-8-8-888--8--8\6-6-666-6--6\5-|
Eb|-------------------------------------------------------|
    * ***        * ***         * ***         * ***
eb|----------------------------------|
Bb|----------------------------------|
Gb|----------------------------------|
Db|-------7-----7-7--8-----8-----8-8-|
Ab|-5-555-5-5-5-5-5--6-666-6-6-6-6-6-|
Eb|----------------------------------|
    * ***   * *        ***   * *      
eb|------------------------------------|
Bb|------------------------------------|
Gb|------------------------------------|
Db|-10-----10----10-10-8-----8-----8---|
Ab|--8-888--8-8-8-8--8-6-666-6-6-6-6-0-|
Eb|------------------------------------|
       ***    * *        ***   * *

Guitar 2
eb|------------------------------------|
Bb|-7h8p7------------------------------|
Gb|-------8-7--8--7~----77-7h8p7----7~-|
Db|------------------------------10----|
Ab|------------------------------------|
Eb|------------------------------------|

eb|------------------------------------------|
Bb|------------------------------------------|
Gb|-777h8p7----7-----------------------------|
Db|---------10----10~----88-8h10p8-8-8~--8\7-|
Ab|------------------------------------------|
Eb|------------------------------------------|

Guitar 3 (Comes in the 2nd time)
eb|-9h10p9----------------------------------------|
Bb|--------11-10--11--10~----1010-10h11p10----10~-|
Gb|----------------------------------------12-----|
Db|-----------------------------------------------|
Ab|-----------------------------------------------|
Eb|-----------------------------------------------|

eb|--------------------------------------------------------|
Bb|-1010-10h11p10----10------------------------------------|
Gb|---------------12-----12~----1010-10h12p10-10-10~--10\9-|
Db|--------------------------------------------------------|
Ab|--------------------------------------------------------|
Eb|--------------------------------------------------------|



Play Riff 2   "It's up to us now..."
Play Riff 3   "So, behold the birth..."

Ending
Guitar 1
eb|-------------------------------------------------------|
Bb|-------------------------------------------------------|
Gb|-------------------------------------------------------|
Db|-------7--7/8-------8--8/10-------10-10\8-------8--8\7-|
Ab|-5-555-5--5/6-6-666-6--6/-8-8-888--8--8\6-6-666-6--6\5-|
Eb|-------------------------------------------------------|
    * ***        * ***         * ***         * ***
eb|-----------------------------------------------------------|
Bb|-----------------------------------------------------------|
Gb|-----------------------------------------------------------|
Db|-------7--7/8-------8--8/10-------10-10\8-------8----5--7\-|
Ab|-5-555-5--5/6-6-666-6--6/-8-8-888--8--8\6-6-666-6--0-3--5\-|
Eb|-----------------------------------------------------------|
    * ***        * ***         * ***         * ***

Guitar 2
eb|------------------------------------|
Bb|-7h8p7------------------------------|
Gb|-------8-7--8--7~----77-7h8p7----7~-|
Db|------------------------------10----|
Ab|------------------------------------|
Eb|------------------------------------|

eb|-------------------------------------------|
Bb|-------------------------------------------|
Gb|-77-7h8p7----7-----------------------------|
Db|----------10----10~----88-8h10p8-8-8~--8\7-|
Ab|-------------------------------------------|
Eb|-------------------------------------------|

eb|------------------------------------|
Bb|-7h8p7------------------------------|
Gb|-------8-7--8--7~----77-7h8p7----7~-|
Db|------------------------------10----|
Ab|------------------------------------|
Eb|------------------------------------|

eb|-------------------------------------------|
Bb|-------------------------------------------|
Gb|-77-7h8p7----7------------------------5-7\-|
Db|----------10----10~----88-8h10p8-8-8~------|
Ab|-------------------------------------------|
Eb|-------------------------------------------|

Guitar 3 (Comes in the 2nd time)
eb|-9h10p9----------------------------------------|
Bb|--------11-10--11--10~----1010-10h11p10----10~-|
Gb|----------------------------------------12-----|
Db|-----------------------------------------------|
Ab|-----------------------------------------------|
Eb|-----------------------------------------------|

eb|--------------------------------------------------------|
Bb|-1010-10h11p10----10------------------------------8-10\-|
Gb|---------------12-----12~----1010-10h12p10-10-10~-------|
Db|--------------------------------------------------------|
Ab|--------------------------------------------------------|
Eb|--------------------------------------------------------|

----------------------------------------------------------------

13. THE COMING CURSE
Tuning: Eb

Riff 1
eb|---------------------------------|
Bb|---------------------------------|
Gb|---------------------------------|
Db|---------------------------------|
Ab|-------7-777-------8-----8-7-5-5-|
Eb|-5-555-------5-555---555---------|
    * *** * *** * *** * * * * * * * 
eb|---------------------------------|
Bb|---------------------------------|
Gb|---------------------------------|
Db|---------------------------------|
Ab|-------5-777---------------------|
Eb|-8-888-------5-555-5-555-555-550-|
    * *** * *** * *** * *** *** ***

Riff 2
eb|----------------------------------|
Bb|----------------------------------|
Gb|----------------------------------|
Db|----------------------------------|
Ab|-5-----5-----8-----8-----10---8---|
Eb|-3-3-3-3-3-3-6-6-6-6-6-6--8-0-6-0-|
      * *   * *   * *   * *    *   *
eb|---------------------------------|
Bb|---------------------------------|
Gb|---------------------------------|
Db|---------------------------------|
Ab|-8\7-5/7-----7-----7-----7-7-7-7-|
Eb|-6\5-3/5-5-5-5-5-5-5-5-5-5-5-5-5-|
            * *   * *   * *
eb|----------------------------------|
Bb|----------------------------------|
Gb|----------------------------------|
Db|----------------------------------|
Ab|-5-----5-----8-----8-----10---8---|
Eb|-3-3-3-3-3-3-6-6-6-6-6-6--8-0-6-0-|
      * *   * *   * *   * *    *   *
eb|---------------------------------|
Bb|---------------------------------|
Gb|---------------------------------|
Db|---------------------------------|
Ab|-8\7-5/7-----7-----7-----7-7-7---|
Eb|-6\5-3/5-5-5-5-5-5-5-5-5-5-5-5-0-|
            * *   * *   * *

Play Riff 1    "I walk the Earth..."
Play Riff 2    "The coming curse..."
Play Riff 1    "For many years..."
Play Riff 2    "Kingdoms fall..."

Riff 3
eb|--------------------------|
Bb|--------------------------|
Gb|--------------------------|
Db|--------------------------|
Ab|-7-----7----7-10-10-----8-|
Eb|-5-5-5-5----5--8--8-0-6-6-|
      * *              * *
   "I walk the Earth, another day..."
eb|------------------------|
Bb|------------------------|
Gb|------------------------|
Db|------------------------|
Ab|-5-----5----5-8-8-----7-|
Eb|-3-3-3-3----3-6-6-0-5-5-|
      * *            * *
   "...the wicked one..."
eb|--------------------------|
Bb|--------------------------|
Gb|--------------------------|
Db|--------------------------|
Ab|-7-----7----7-10-10-----8-|
Eb|-5-5-5-5----5--8--8-0-6-6-|
      * *              * *
   "Savior to my own..."
eb|---------------------------------|
Bb|---------------------------------|
Gb|---------------------------------|
Db|---------------------------------|
Ab|-5-----5----5-8-8-----7----------|
Eb|-3-3-3-3----3-6-6-0-5-5--------0-|
      * *            * *          *
   "Mankind falls..."


Play Riff 1    "I bide my time..."
Play Riff 2    "The coming curse..."
Play Riff 3    "I walk the Earth, another day..."


Riff 4 (Solo rhythm)
eb|---------------------------------|
Bb|---------------------------------|
Gb|---------------------------------|
Db|---------------------------------| ---|
Ab|-------7-777---------------------|    |
Eb|-5-555-------5-555-5-555-555-550-|    |
    * *** * *** * *** * *** *** ***      |
eb|---------------------------------|    |---> Play 2x
Bb|---------------------------------|    |
Gb|---------------------------------|    |
Db|---------------------------------| ---|
Ab|-------8-888---------------------|
Eb|-5-555-------5-555-5-555-555-550-|
    * *** * *** * *** * *** *** ***

eb|---------------------------------|
Bb|---------------------------------|
Gb|---------------------------------|
Db|---------------------------------| ---|
Ab|-------5-555---------------------|    |
Eb|-3-333-------3-333-3-333-333-330-|    |
    * *** * *** * *** * *** *** ***      |
eb|---------------------------------|    |---> Play 2x
Bb|---------------------------------|    |
Gb|---------------------------------|    |
Db|---------------------------------| ---|
Ab|-------6-666---------------------|
Eb|-3-333-------3-333-3-333-333-330-|
    * *** * *** * *** * *** *** ***

Solo
eb|---------------------------------------------------|
Bb|---------------------------8-----------------------|
Gb|-9-10-/14~----(14)\--/9-10----9-10--9--7--6-7-7/9~-|
Db|---------------------------------------------------|
Ab|---------------------------------------------------|
Eb|---------------------------------------------------|

eb|-------------------------------------------|
Bb|-------------------------------------------|
Gb|-/7~----6-7p6--------------6-7-6-------6---|
Db|--------------8-7~--4-/7-8-------8-7-8---8-|
Ab|-------------------------------------------|
Eb|-------------------------------------------|

eb|-------------------------------------------------------|
Bb|-------------------------------------------------------|
Gb|-6h7h9-7h9h10-9h10h12-10-9-12-10-9-10-9-7-9-10-7-9-7-6-|
Db|-------------------------------------------------------|
Ab|-------------------------------------------------------|
Eb|-------------------------------------------------------|

eb|------------------------|
Bb|------------------------|
Gb|-7-9-7-6-7-6------------|
Db|-------------77-7~------|
Ab|--------------------5h7-|
Eb|------------------------|

eb|------------------------------------------|
Bb|-------------------------3/-10-11-10~\----|
Gb|-----7-9-10-9-7~--(7)\-3---------------3/-|
Db|-7-8--------------------------------------|
Ab|------------------------------------------|
Eb|------------------------------------------|

eb|------------10-12-13p12p10-12h13-12p10---------------------|
Bb|------10-11----------------------------11-10--13p10-10~----|
Gb|-9-10----------------------------------------------------0-|
Db|-----------------------------------------------------------|
Ab|-----------------------------------------------------------|
Eb|-----------------------------------------------------------|

Harmony part:
Guitar 1
eb|----------------------------------------------------|
Bb|----------------------------------------------------|
Gb|-12-0-0-10-0-0-9-0-0-7-0-0-10-0-0-9-0-0-7-0-0-5-0-0-|
Db|----------------------------------------------------|
Ab|----------------------------------------------------|
Eb|----------------------------------------------------|
     * * *  * * * * * * * * *  * * * * * * * * * * * *
eb|------------------------------------------------|
Bb|------------------------------------------------|
Gb|-10~~-9~~--7~~----------------------------------|
Db|--a---a----a-----/8--8--8h10p8p7-7~~------------|
Ab|------------------------------------------------|
Eb|--------------------------------------------X\\-|

Guitar 2
eb|--------------------------------------------------------|
Bb|--------------------------------------------------------|
Gb|-15-0-0-14-0-0-12-0-0-10-0-0-14-0-0-12-0-0-10-0-0-9-0-0-|
Db|--------------------------------------------------------|
Ab|--------------------------------------------------------|
Eb|--------------------------------------------------------|
     * * *  * * *  * * *  * * *  * * *  * * *  * * * * * *
eb|---------------------|
Bb|---------------------|
Gb|-14~~-12~~--10~~--\--|
Db|--a----a-----a-------|
Ab|---------------------|
Eb|---------------------|

End solo


Riff 5
eb|----5------------------5----------|
Bb|----5------------------5----------|
Gb|----------------------------------|
Db|----------------------------------|
Ab|-7---------5-7-8--8-7-------------|
Eb|-5-------0-3-5-6--6-5-----------0-|

eb|----5------------------5----------|
Bb|----5------------------5----------|
Gb|----------------------------------|
Db|----------------------------------|
Ab|-7---------5-7-8--8-7-------------|
Eb|-5-------0-3-5-6--6-5-------6-5-3-|

eb|----2----------------2----------|
Bb|----2----------------2----------|
Gb|--------------------------------|
Db|--------------------------------|
Ab|-4---------4-5--5-4-------------|
Eb|-2-------0-2-3--3-2-----------0-|
            *                    *
eb|----2----------------2----------|
Bb|----2----------------2----------|
Gb|--------------------------------|
Db|--------------------------------|
Ab|-4---------4-5--5-4---------4-5-|
Eb|-2-------0-2-3--3-2-------0-2-3-|
            *                *

Riff 6
Guitar 1
eb|-----------------------------------|
Bb|-----------------------------------|
Gb|-----------------------------------|
Db|-----------------------------------|
Ab|-7-777-777-77-5-7-8--8-7-7-777-777-|
Eb|-5-555-555-55-3-5-6--6-5-5-555-555-|
    * *** *** ** * * *  * * * *** *** 
eb|--------------------------------------------|
Bb|--------------------------------------------|
Gb|--------------------------------------------|
Db|--------------------------------------------|
Ab|-777-777-777-77-5-7-8--8-7-7-777-7----8-7-5-|
Eb|-555-555-555-55-3-5-6--6-5-5-555-5-55-6-5-3-|
    *** *** *** ** * * *  * * * *** * ** * * *
eb|-----------------------------------|
Bb|-----------------------------------|
Gb|-----------------------------------|
Db|-----------------------------------|
Ab|-4-444-444-44-2-4-5--5-4-4-444-444-|
Eb|-2-222-222-22-0-2-3--3-2-2-222-222-|
    * *** *** ** * * *  * * * *** ***        Last time
eb|------------------------------------------|-----|
Bb|------------------------------------------|-----|
Gb|------------------------------------------|-----|
Db|------------------------------------------|--7--|
Ab|-444-444-444-44-2-4-5--5-4-4-444-44-2-4-5-|--7--|
Eb|-222-222-222-22-0-2-3--3-2-2-222-22-0-2-3-|--5--|
    *** *** *** ** * * *  * * * *** ** * * *

Guitar 2 (slightly palm muted)
eb|--------------------------------------|
Bb|--------------------------------------|
Gb|---9-10---9-10---9-10---9-10-7-9-10-9-|
Db|-7------7------7------7---------------| ---|
Ab|--------------------------------------|    |
Eb|--------------------------------------|    |
                                              |
eb|------------------------------|            |---> Play 2x
Bb|-------------------10-9-10\---|            |
Gb|---9-10---9-10---9----a--a----|            |
Db|-8------8------7--------------| -----------|
Ab|------------------------------|
Eb|------------------------------|

eb|---------------------------------|
Bb|---------------------------------|
Gb|---6-7---6-7---6-7---6-7-4-6-7-6-|
Db|-4-----4-----4-----4-------------|
Ab|---------------------------------|
Eb|---------------------------------|

eb|-------------------------|
Bb|-----------------7-6-----|
Gb|---6-7---6-7---6-----7-6-|
Db|-5-----5-----4-----------|
Ab|-------------------------|
Eb|-------------------------|

eb|---------------------------------|
Bb|---------------------------------|
Gb|---6-7---6-7---6-7---6-7-4-6-7-6-|
Db|-4-----4-----4-----4-------------|
Ab|---------------------------------|
Eb|---------------------------------|

eb|-----------------------------------|
Bb|-----------------7-6h7p6-----------|
Gb|---6-7---6-7---6---------7-6h7p6---|
Db|-5-----5-----4-------------------7-|
Ab|-----------------------------------|
Eb|-----------------------------------|


Riff 7 (Clean, let notes ring)      x2
eb|----------------------------------|
Bb|----------------------------------|
Gb|---9---10-----7---9-----9-----9---|
Db|-7---7----7-7---7---7-7---7-7---7-|
Ab|----------------------------------|
Eb|----------------------------------|
   "Forged in the sacred..."
                                   x2
eb|---------------------------------|
Bb|---------------------------------|
Gb|---7---8-----5---7-----7-----7---|
Db|-5---5---5-5---5---5-5---5-5---5-|
Ab|---------------------------------|
Eb|---------------------------------|
   "...flames..."



Riff 8 (Distortion)   x4
eb|--------------------|
Bb|--------------------|
Gb|---9---7-9-10---7-9-|
Db|-7---7--------7-----|
Ab|--------------------|
Eb|--------------------|
    * * * * *  * * * *
  "...sixth hour..."
                     x4
eb|-------------------|
Bb|-------------------|
Gb|---7---5-7-8---5-7-|
Db|-5---5-------5-----|
Ab|-------------------|
Eb|-------------------|
    * * * * * * * * *


Riff 9               x2
eb|----5------------5-|
Bb|----5------------5-|
Gb|-------------------|
Db|-------------------|
Ab|-7-------8--8-7----|
Eb|-5-------6--6-5----|
   "I am your anti-christ..."

eb|----3-------3--------|
Bb|----3-------3--------|
Gb|---------------------|
Db|---------------------|
Ab|-5-------5-------8-8-|
Eb|-3-------3-------6-6-|
   "Born of the beast..."

eb|----5------------5-|
Bb|----5------------5-|
Gb|-------------------|
Db|-------------------|
Ab|-7-------8--8-7----|
Eb|-5-------6--6-5----|
   "I will devour..."


Play Riff 1
Play Riff 2
Play Riff 1    "Hellfire..."
Play Riff 2    "The coming curse..."
Play Riff 3    "I walk the earth, another day..."
Play Riff 4

Here's the ending lead         x2
eb|-----------------------------|
Bb|----10~---9h10p9----9--------|
Gb|-----------------10----10-9~-|
Db|-7---------------------------|
Ab|-----------------------------|
Eb|-----------------------------|
                             x2
eb|---------------------------|
Bb|----8~----7h8p7---7--------|
Gb|----------------8----8-7~--|
Db|-5-------------------------|
Ab|---------------------------|
Eb|---------------------------|

Repeat the above

End solo, song fades out

Here's the live ending:           x2
eb|--------------------------------|
Bb|--------------------------------|
Gb|--------------------------------|
Db|-------9----9---------10---10---|
Ab|-------7----7p0--------8----8p0-|
Eb|-5-5-5----------5-5-5-----------|
    * * *          * * *         x2
eb|-------------------------------|
Bb|-------------------------------|
Gb|-------------------------------|
Db|-------7----7---------8----8---|
Ab|-------5----5p0-------6----6p0-|
Eb|-3-3-3----------3-3-3----------|
    * * *          * * *          x2
eb|--------------------------------|
Bb|--------------------------------|
Gb|--------------------------------|
Db|-------9----9---------10---10---|
Ab|-------7----7p0--------8----8p0-|
Eb|-5-5-5----------5-5-5--8--------|
    * * *          * * *         x2
eb|-------------------------------|
Bb|-------------------------------|
Gb|-------------------------------|
Db|-------7----7---------8----8---|
Ab|-------5----5p0-------6----6p0-|
Eb|-3-3-3----------3-3-3----------|
    * * *          * * *
eb|---------|
Bb|---------|
Gb|---------|
Db|---------|
Ab|-------7-|
Eb|-3-3-3-5-|
    * * *


Notation:

10^        = bend a quarter step.
10b11      = bend a half step.
10b12      = bend a full step.
10b12r10   = bend and release.
[10]12     = pre-bend.
[10]12r10  = pre-bend and release.
{14}       = pick the 14th fret while holding the most 
             previous bend.
<17>       = touch the string above the 17th fret while 
             previous note(s) is(are) still ringing.

10b13*     = tremolo bar bend, from the 10th fret to the 13th fret.
7d4*       = tremolo bar dive, from the 7th fret to the 4th fret. 
12~*       = tremolo bar vibrato.

x   =  mute with fret-hand
*   =  palm mute
X\\ =  pick slide
h   =  hammer-on
p   =  pull-off
~   =  vibrato
t   =  finger tap
/   =  slide up
\   =  slide down
h.  =  natural harmonics
a   =  artificial harmonics
(9) =  ghost note
tm  =  trem picking
tr  =  trill








Related for Something Wicked This Way Comes tab
Advertisement will be closed in 10 seconds