Song name
# A B C D E F G H I J K L M N O P Q R S T U V W X Y Z

Iced Earth - Reflections tab

Iced Earth:  Reflections

transcribed by: Russ Elton (webmaster@abysslord.com)

FIND EVERY ICED EARTH SONG AND
THE MOST UPDATED VERSION OF THIS SONG AT:

                        The Frozen Palace
                  http://abysslord.com/icedearth/

Date last modified:  12/08/07
  
PLEASE DO NOT COPY THIS TAB TO ANOTHER SITE 
WITHOUT AUTHORS' PERMISSION.  THANK YOU.

Tuning: Eb

Rhythm is a steel acoustic, fills are a clean guitar.

Rhythm:
eb|--------------------------|
Bb|----------8---------------|
Gb|--------0---0-------------|
Db|-----10-------10-------9--|
Ab|---7-------------7---7-7--|
Eb|-0-----------------0------|

eb|--------------------------|
Bb|----------8---------------|
Gb|--------0---0-------------|
Db|-----10-------10-------9--|
Ab|---7-------------7---7-7--|
Eb|-0-----------------0------|

eb|------------------------------------|
Bb|---------7----------------5---------|
Gb|-----0---h.-7----------5--h.--5-----|
Db|---4---4----h.-4-----2-h.-----h.--2-|
Ab|-5---------------5-3----------------|
Eb|------------------------------------|

eb|----------------------------0-------|
Bb|----------7---------------3---3-----|
Gb|------0---h.-7----------0-------0---|
Db|----4---4----h.-4-----2-----------2-|
Ab|-/5---------------5-3---------------|
Eb|------------------------------------|

Final time:
eb|----------------------------0--|
Bb|----------7---------------1----|
Gb|------0---h.-7----------0------|
Db|----4---4----h.-4-----2--------|
Ab|-/5---------------5-3----------|
Eb|-------------------------------|


Guitar fills:
End of intro, start of first verse:
eb|---0----------5---|
Bb|-1-----------5h.--|
Gb|------------5h.---|
Db|------------h.----|
Ab|------------------|
Eb|------------------|

After first verse:
eb|----12---|
Bb|-----h.--|
Gb|-7-------|
Db|-h.------|
Ab|---------|
Eb|---------|

Just before second verse:
eb|-----12--|
Bb|---12-h.-|
Gb|-12-h.---|
Db|--h.-----|
Ab|---------|
Eb|---------|

End of song:
eb|-------5---|
Bb|-----5-h.--|
Gb|---5-h.----|
Db|-5-h.------|
Ab|-h.--------|
Eb|-----------|



Notation:

10^        = bend a quarter step.
10b11      = bend a half step.
10b12      = bend a full step.
10b12r10   = bend and release.
[10]12     = pre-bend.
[10]12r10  = pre-bend and release.
{14}       = pick the 14th fret while holding the most 
             previous bend.
<17>       = touch the string above the 17th fret while 
             previous note(s) is(are) still ringing.

10b13*     = tremolo bar bend, from the 10th fret to the 13th fret.
7d4*       = tremolo bar dive, from the 7th fret to the 4th fret. 
12~*       = tremolo bar vibrato.

x   =  mute with fret-hand
*   =  palm mute
X\\ =  pick slide
h   =  hammer-on
p   =  pull-off
~   =  vibrato
t   =  finger tap
/   =  slide up
\   =  slide down
h.  =  natural harmonics
a   =  artificial harmonics
(9) =  ghost note
tm  =  trem picking
tr  =  trill
Tap to rate this tab
# A B C D E F G H I J K L M N O P Q R S T U V W X Y Z