Song name
# A B C D E F G H I J K L M N O P Q R S T U V W X Y Z

Iced Earth - Dantes Inferno tab

Play six times, with the melody A (below) starting on the third time,
	And carry the melody A through to the next section. 

Eb--||------------7--------7--------7--------------------7-------------
Bb--||---------0-----0--------0--------0--------------0-----0----------
Gb--||*-----0-----------0--------0--------0--------0-----------0-------
Db--||*----------------------------------------------------------------
Ab--||---7-----------------------------------7--6----------------------
Eb--||-----------------------------------------------------------------
                                                                        

                       6x                                               
Eb-7-------7------------||
Bb---0--------0---------||
Gb------0--------0-----*||
Db---------------------*||
Ab------------------(6)-|| <<- Don't play 6th time
Eb----------------------||
    
               
Melody A: Play this staring with the third repetition of the very first section,
And carry into the second. (so there is overlap with the times)
 
Eb--||---12--14--15---------------12--14--15--17--19--------------------
Bb--||---------------16\12----------------------------------15--17------
Gb--||*-----------------------------------------------------------------
Db--||*-----------------------------------------------------------------
Ab--||------------------------------------------------------------------
Eb--||------------------------------------------------------------------
                                                                        

                                                                        
Eb-------------------------------15-------------------------------------
Bb--18--17\13--------15--17--18------17--------15--17--18--17\13--------
Gb----------------------------------------------------------------------
Db----------------------------------------------------------------------
Ab----------------------------------------------------------------------
Eb----------------------------------------------------------------------
                                                                        

                                2x                                      
Eb-----------------15--17--19---||--------------------------------------
Bb-----15--17--18---------------||--------------------------------------
Gb-----------------------------*||--------------------------------------
Db-----------------------------*||--------------------------------------
Ab------------------------------||--------------------------------------
Eb------------------------------||--------------------------------------

                                                     
Eb--||------------0--------0--------0-----------------0------------------
Bb--||---------3-----3--------3--------3-----------------1---------------
Gb--||*-----2-----------2--------2--------2--------0--------0--------0---
Db--||*--0--------------------------------------2-----------------2------
Ab--||---------------------------------------3-----------------3---------
Eb--||-------------------------------------------------------------------
                                                                        

                 4x                                                     
Eb----0---------||
Bb-------1------||
Gb----------0--*||
Db-------------*||
Ab--------------||
Eb--------------||
                                                                        

                                                                        
Eb--||------------7--------7--------7--------------------7-------------
Bb--||---------0-----0--------0--------0--------------0-----0----------
Gb--||*-----0-----------0--------0--------0--------0-----------0-------
Db--||*----------------------------------------------------------------
Ab--||---7-----------------------------------7--6----------------------
Eb--||-----------------------------------------------------------------
                                                                        

                       4x                                               
Eb-7-------7------------|| 
Bb---0--------0---------|| 
Gb------0--------0-----*|| 
Db---------------------*|| 
Ab------------------(6)-|| <<- Don't play 6th time
Eb----------------------||
                                                                                                    Abandon (the First one)        4x                              
EB--||----------------------------------||-----|------------------------
Bb--||----------------------------------||-----|------------------------
Gb--||*--------------------------------*||-----|------------------------
Db--||*--2-----2--2-----2--1-----1--1--*||--2--|------------------------
Ab--||---2-----2--2-----2--1-----1--1---||--2--|------------------------
Eb--||----------------------------------||--0--|------------------------
                                                                        

      Riff A                                                         
EB--||------------------------------------------------------------------
Bb--||------------------------------------------------------------------
Gb--||*-----------------------------------------------------------------
Db--||*--0h2--0h3-----3--3p2p0-----0h2----------------------------------
Ab--||---0h2--0h3-----3--3p2p0-----0h2----------------------------------
Eb--||--------------------------------0--0--0--0-----0--0-----0---------
                                                                        

                                                     2x                  
EB--------------------|-----------------------------||--|---------------
Bb--------------------|-----------------------------||--|---------------
Gb--------------------|----------------------------*||--|---------------
Db--------------------|-----0h2--------------------*||--|---------------
Ab--------------------|-----0h2---------------------||--|---------------
Eb--0--0--0--0--0--0--|----------0-----0--0--0--0---||--|---------------
                                                                        


 Riff A1 
EB-----------------------|
Bb-----------------------|
Gb-----------------------|
Db--0h2--0h3-----3--3p0--|
Ab--0h2--0h3-----3--3p0--|
Eb-----------------------|
                                                                        

 (first time)    Riff B                                                              
EB----------------------------------------------------------------------
Bb----------------------------------------------------------------------
Gb----------------------------------------------------------------------
Db-----------5-----5--------------5--------5-----------5-----5----------
Ab--5--5--5--5-----5-----5--5--5--5--------5--5--5--5--5-----5----------
Eb----------------------------------------------------------------------
                                                                        

                                                                        
EB--------------------|-------------------------------------------------
Bb--------------------|-------------------------------------------------
Gb--------------------|-------------------------------------------------
Db-----------5-----5--|-------------------------------------------------
Ab--5--5--5--5-----5--|-------------------------------------------------
Eb--------------------|-------------------------------------------------
                                                                        


         Riff C                                                         
EB--||------------------------------------------------------------------
Bb--||------------------------------------------------------------------
Gb--||*-----------------------------------------------------------------
Db--||*-----0h2-----------------------0h2--0h3-----3--3p0-----0h2-------
Ab--||------0h2-----------------------0h2--0h3-----3--3p0-----0h2-------
Eb--||-----------0--0--0-----0--0--0------------------------------------
         ABANDON!                                                       

                                                        4x              
EB------------------------------------------------------||--|-----------
Bb------------------------------------------------------||--|-----------
Gb-----------------------------------------------------*||--|-----------
Db-----------------------------------------------------*||--|-----------
Ab------------------------------------------------------||--|-----------
Eb--------0--0-----0--0--0-----0--0--0--0--0--0--0--0---||--|-----------
                                                                        
Play Riff B, Riff C, Riff B                                         
EB-----------------------------------------|----------------------------
Bb-----------------------------------------|----------------------------
Gb-----------------------------------------|----------------------------
Db-----------------------------------------|----------------------------
Ab-----------------------------------------|----------------------------
Eb-----------------------------------------|----------------------------
      




         Riff D     Play 4 times with 'solo' B
Eb--||------------------------------------------------------------------
Bb--||------------------------------------------------------------------
Gb--||*-----------------------------------------------------------------
Db--||*--2--------3p2p0--2-----3--------3\2--------3\2-----------3------
Ab--||---2--2-----3p2p0--2--2--3--------3\2--------3\2-----------3------
Eb--||------0---------------0----------------0----------0---------------
                                                                        

                                                                        
Eb----------||
Bb----------||
Gb---------*||
Db--p2-----*||
Ab--p2------||
Eb------0---||
                                                                        

    'Solo' B, played along wRiff D 
Eb--||---19p17p15--19p17p15--19p17p15--19p17p15--19p17p15--19p17p15-----
Bb--||------------------------------------------------------------------
Gb--||*-----------------------------------------------------------------
Db--||*-----------------------------------------------------------------
Ab--||------------------------------------------------------------------
Eb--||------------------------------------------------------------------
        
 
Eb--19p17p15--19p17p15--20p17p15--20p17p15--20p17p15--20p17p15--20------
Bb----------------------------------------------------------------------
Gb----------------------------------------------------------------------
Db----------------------------------------------------------------------
Ab----------------------------------------------------------------------
Eb----------------------------------------------------------------------
                                                                        

                                           4x                           
Eb--p17p15--20p17p15--20p17p15--20p17p15---||---------------------------
Bb-----------------------------------------||---------------------------
Gb----------------------------------------*||---------------------------
Db----------------------------------------*||---------------------------
Ab-----------------------------------------||---------------------------
Eb-----------------------------------------||---------------------------
                                                                        

    Play Riff A (4x), Riff A1, Riff B, Riff D                           
Eb----------------------------------------------------------------------
Bb----------------------------------------------------------------------
Gb----------------------------------------------------------------------
Db----------------------------------------------------------------------
Ab----------------------------------------------------------------------
Eb----------------------------------------------------------------------
                                                                        


      Bridge A  play 4x  (solo missing :(                4x                 
EB--||-----------------------------------------------||--|--------------
Bb--||-----------------------------------------------||--|--------------
Gb--||*---------------------------------------------*||--|--------------
Db--||*---------------------------------------------*||--|--------------
Ab--||---------------5\4--------5\4--------------3---||--|--------------
Eb--||---0--0--0--0--3-2--0--0--3-2--0--0--2--0--1---||--|--------------
                                                                        

         HEAVY,TIGHT palm mute play 2x
EB--||------------------------------------------------------------------
Bb--||------------------------------------------------------------------
Gb--||*-----------------------------------------------------------------
Db--||*----------------------------7/9-----------------------------12\--
Ab--||---7-----7--7--7--7----7--7--5/7---7-----7--7--7--7----7--7--10\8
Eb--||------------------------------------------------------------------
                                                                        

                                                                X2          
EB--------------------------------------------------------------||
Bb--------------------------------------------------------------||
Gb-------------------------------------------------------------*||
Db------------------------10\7----------------------------7-4--*||
Ab-----8--8--8--8----8--8--8\5---5----5--5--5--5----5--5--5\2---||
Eb--------------------------------------------------------------||
                                                                        
 

There are some solos played over this.  

                            play twice
EB--||------------------------------------------------------------------
Bb--||------------------------------------------------------------------
Gb--||*-----------------------------------------------------------------
Db--||*-----------------------2--------------------------2--------3-----
Ab--||------------------------2--------------------------2--------3-----
Eb--||---0--0--0--0--0--0--0--0-----0--0--0--0--0--0--0--0--0--0--1-----
                                                                        

                                                                        
EB----------------------------------------------------------------------
Bb----------------------------------------------------------------------
Gb----------------------------------------------------------------------
Db--------------------------2--------------------------2--------3-------
Ab--------------------------2--------------------------2--------3--1----
Eb-----0--0--0--0--0--0--0--0-----0--0--0--0--0--0--0--0--0--0--1-------
                                                                        

                                                                        
EB----------------------------------------------------------------------
Bb----------------------------------------------------------------------
Gb----------------------------------------------------------------------
Db-----------------3--------------------2--------------2----------------
Ab--1--1--1--1--1--1--1--1--1--1--1--1--0-----0--0--0--0-----1--1--1----
Eb----------------------------------------------------------------------
                                                                        

                                                     2x                 
EB---------------------------------------------------||-----------------
Bb---------------------------------------------------||-----------------
Gb--------------------------------------------------*||-----------------
Db-----------3--------------------2--------------2--*||-----------------
Ab--1--1--1--1--1--1--1--1--1--1--0-----0--0--0--0---||-----------------
Eb---------------------------------------------------||-----------------
                                                                        

             Maybe more than the single notes listed here
EB--||------------------------------------------------------------------
Bb--||------------------------------------------------------------------
Gb--||*-----------------------------------------------------------------
Db--||*--------------2-----------------2-----------3p2-----------2------
Ab--||---------------2-----------------2-----------3p2-----------2------
Eb--||---0--0--0--0--0-----0--0--0--0--0-----0--0----------0--0--0------
                                                                        

                                                                        
EB---------------------------------------
Bb---------------------------------------
Gb---------------------------------------
Db-----------------2-----------------3p2-(keep going to next staff.)
Ab-----------------2-----------------3p2-  
Eb-----0--0--0--0--0-----0--0--0--0------
                                                                        

                                                                        
EB----------------------------------------------------------------------
Bb----------------------------------------------------------------------
Gb--------------------------------2--------2----------------------------
Db--------------3-----------------2--------2--------------------3-------
Ab--1--1--1--1--1-----1--1--1--1--0--0--0--0--------1--1--1--1--1-------
Eb----------------------------------------------------------------------
                                                                        


                            2x                                         
EB---------------------------||
Bb---------------------------||
Gb--------------2--------2--*||
Db--------------2--------2--*||
Ab--1--1--1--1--0--0--0--0---||
Eb---------------------------||
                                                                        

	Clean, with chorus and maybe a slight delay. A 'Dreamy' feel.	
                 Let Em chord fade      4x      
EB--|-----||----------------------------||------
Bb--|-----||----------------------------||------
Gb--|-----||*--------0-----------------*||------
Db--|-(2)-||*-----9-----9-----9-----9--*||------
Ab--|-(2)-||---7-----------7-----7------||------
Eb--|-(0)-||----------------------------||------
                                                                        

         Third time, second guitar plays fill(below)                    
EB--||------------------------------------------------------------------
Bb--||------------------------------------------------------------0-----
Gb--||*--------0-----------------------0-----------------------7--------
Db--||*-----9-----9-----9-----9-----9-----9-----9-----9-----7-----------
Ab--||---7-----------7-----7-----7-----------7-----7-----5--------------
Eb--||------------------------------------------------------------------
                                                                        

                                                                        
EB----------------------------------------------------------------------
Bb-----------------0-----------------0-----------------0----------------
Gb--7-----------7-----7-----------5-----5-----------5-----5-------------
Db-----7-----7-----------7-----5-----------5-----5-----------5----------
Ab--------5-----------------3-----------------3--------------------2----
Eb--------------------------------------------------------------0-------
                                                                        

                                     4x                                 
EB-----------------------------------||---------------------------------
Bb-----------------------------------||---------------------------------
Gb-----0h2--2h0-----------0h2--2h0--*||---------------------------------
Db--2------------------2------------*||---------------------------------
Ab------------------2----------------||---------------------------------
Eb---------------0-------------------||---------------------------------
                                                                        

                                                                        
EB----------------------------------------|-----------------------------
Bb----------------------------------------|-----------------------------
Gb-----------0h2--2h0-----------0h2--2h0--|-----------------------------
Db--------2------------------2------------|-----------------------------
Ab-----2------------------2---------------|-----------------------------
Eb--0------------------0------------------|-----------------------------
               

    Fill A(to be played third time through prev.)                        
        (this is harder to hear on the studio cd)
EB--------7-----------------------7-----------------------5-------------
Bb-----7-----7-----7-----7-----7-----7-----7-----7-----5-----5-----5----
Gb--9-----------9-----9-----9-----------9-----9-----7-----------7-------
Db----------------------------------------------------------------------
Ab----------------------------------------------------------------------
Eb----------------------------------------------------------------------
                                                                        

                                                                        
EB--------------5-----------------------3-----------------------3-------
Bb-----5-----5-----5-----5-----5-----3-----3-----3-----3-----3-----3----
Gb--7-----7-----------7-----7-----5-----------5-----5-----5-------------
Db----------------------------------------------------------------------
Ab----------------------------------------------------------------------
Eb----------------------------------------------------------------------
                                                                        

                                                                        
EBb-----3-----3-|
Gb--5-----5-----|
Db--------------|
Ab--------------|
Eb--------------|

With distortion/crunch again, accent on the first of each triplet,
This is again a very difficult section to tab the rhythm, so play as you 
see fit.  The steady drums come in on the third pass.

EB--||------------------------------------------------------------------
Bb--||------------------------------------------------------------------
Gb--||*-----------------------------------------------------------------
Db--||*--5--------------------------------------------------------------
Ab--||---5--------------------------------------------------------------
Eb--||---3-----3--3--3-----3--3--3-----3--3--3-----3--3--3-----3--3-----
                                                                        

                                                                        
EB----------------------------------------------------------------------
Bb----------------------------------------------------------------------
Gb----------------------------------------------------------------------
Db----------------------------------------------------------------------
Ab----------------------------------------------------------------------
Eb--3-----6p3-----3--3--3-----3--3--3-----3--3--3-----3--3--3-----3-----
                                                                        

EB----------------------------------------------------------------------
Bb----------------------------------------------------------------------
Gb----------------------------------------------------------------------
Db----------------------------------------------------------------------
Ab----------------------------------------------------------------------
Eb--3--3-----0h3-----3--3--3-----3--3--3-----3--3--3-----3--3--3--------
                                                                        

EB----------------------------------------------------------------------
Bb----------------------------------------------------------------------
Gb----------------------------------------------------------------------
Db----------------------------------------------8--8--8--8--------7-----
Ab----------------------------------------------8--8--8--8--------7-----
Eb--3--3--3-----6p3-----3--3--3-----3--3--3-----6--6--6--6--------5-----
                                                                        

              4x                                                        
EB---------------||-----------------------------------------------------
Bb---------------||-----------------------------------------------------
Gb--------------*||-----------------------------------------------------
Db--7--7--7--7--*||-----------------------------------------------------
Ab--7--7--7--7---||-----------------------------------------------------
Eb--5--5--5--5---||-----------------------------------------------------
             

                                                           

         actually the 3rd and 4th times are hamonies         
EB--||------------------------------------------------------------------
Bb--||------------------------------------------------------------------
Gb--||*-----------------------------------------------------------------
Db--||*--5-----------------------------5----------10------------5-------
Ab--||---5----------7------------------5----------10------------5-------
Eb--||---3--3p0--3--5-----5p3--5p3-----3--3p0--3--8------5/6\5--3--3----
                                                                        

                                                 2x                     
EB-----------------------------------------------||
Bb-----------------------------------------------||
Gb----------------------------------------------*||
Db-------------------------3--------------5-----*||
Ab---------7---------------3--------------5------||
Eb--p0--3--5--5p0--5p0-----1-----1--3--5--3------||


One guitar plays high note,the other plays the low.  Each guitar may find 
it easier to occasionally play a note on the higher string, but it is written
this way so I could put it on one staff.

EB||----------------------------------------------------------------------
Bb||----------------------------------------------------------------------
Gb||*--3-----3h5h6--5-----5h6p5-----3-----3h5h6---8-----5h6p5-------------
Db||*--5-----5h7h8--7-----7h8p7-----5-----5h7h8--10-----7h8p7-------------
Ab||----------------------------------------------------------------------
Eb||----------------------------------------------------------------------
                                   
                                     

                                                                        
EB----------------------------------------------------||------------------
Bb----------------------------------------------------||------------------
Gb-----3-----3h5h6--5-----5h6p5-----2-----2h3/5--3---*||------------------
Db-----5-----5h7h8--7-----7h8p7-----3-----3h5/7--5---*||------------------
Ab----------------------------------------------------||------------------
Eb----------------------------------------------------||------------------

                                                                        

      Riff E                                                                 
EB--||------------------------------------------------------------------
Bb--||------------------------------------------------------------------
Gb--||*-----------------------------------------------------------------
Db--||*-----------------------------------------------------------------
Ab--||---5-----------7-5-4-5--5-----------7-5-4-5-4--------------5------
Eb--||---3--3--3--3--5\3\2/3--3--3--3--3--5\3\2/3\2-----2--2--2--3------
         DOWN!       Be still thy cursed WOLF! 


                                  2x                                    
EB--------------------------------||
Bb--------------------------------||
Gb-------------------------------*||
Db-------------------------------*||
Ab---4-3-4--4-----------5-4-3-4---||
Eb--\2\1/2--2--2--2--2--3\2\1/2---||

    Riff F   (not REAL sure of this part),plus chords missing
EB--||------------------------------------------------------------------
Bb--||------------------------------------------------------------------
Gb--||*-----------------------------------------------------------------
Db--||*-----------------------------------------------------------------
Ab--||---10--10--10--10-----12--10--9--10--10-----10--10--10-----12-----
Eb--||------------------------------------------------------------------
             some Latin? chanting...

                                                                        
EB----------------------------------------------------------------------
Bb----------------------------------------------------------------------
Gb----------------------------------------------------------------------
Db----------------------------------------------------------------------
Ab--10--9--10-----9-----9--9--9-----10--9--8--9--9-----9--9--9----------
Eb----------------------------------------------------------------------
                                                                        

                        Repeat Riff E&F FIRST (then come back here)   
                  2x                                                   4x
EB----------------||--||-----------------------------------------------||
Bb----------------||--||-----------------------------------------------||
Gb---------------*||--||*---------------------------------------------*||
Db---------------*||--||*--8--7--8--7--8--7--6--7--6--7---------------*||
Ab--10--9--8--9---||--||-----------------------------------------------||
Eb----------------||--||-----------------------------------------------||
                           (put low chords in here) bounce A#/A/G# ?                   

                I really think the bass is moving here                         
EB--||------------------------------------------------------------------
Bb--||------------------------------------------------------------------
Gb--||*-----------------------------------------------------------------
Db--||*-----------------------------------------------------------------
Ab--||------------------------------------------------------------------
Eb--||---10--10--10--10-----10--10--10--10-----9--9--9--9-----9--9------
                                                                        

                                                                        
EB----------------------------------------------------------------------
Bb----------------------------------------------------------------------
Gb----------------------------------------------------------------------
Db----------------------------------------------------------------------
Ab----------------------------------------------------------------------
Eb--9--9-----10--10--10--10-----10--10--10--10-----9--9--9--9-----9-----
                                                                        



              4x                                                        
EB------------||
Bb------------||
Gb-----------*||
Db-----------*||
Ab------------||
Eb--9--9--9---||
                                                                        

                                        (Third time let chord ring) 
EB--||----------------------------------------------------------||
Bb--||----------------------------------------------------------||
Gb--||*--------------------------------------------------------*||
Db--||*--------------------------------------------------------*||
Ab--||---5--7--4-----5--7--4-----5--7--4--5-----2------------2--||
Eb--||---3--5--2-----3--5--2-----3--5--2--3-----0--0--0--1---0--||
         More chanting, kinda like a chorus


      Clean, chorus, some delay adds a neat effect.                             
EB--||------------------------------------------------------------------
Bb--||------------------------------------------------------------------
Gb--||*-----------------------------------------------------------------
Db--||*-----------------------------------------------------------------
Ab--||---7--7--7--7--8--5--7--7--7--7--8--10----------------------------
Eb--||------------------------------------------------------------------
                                                                        

      Second guitar play high part. Maybe volume swells?  2x                            
EB--------------------------12--10--14--12||--|-------------------------
Bb----------------------------------------||--|-------------------------
Gb---------------------------------------*||--|-------------------------
Db---------------------------------------*||--|-------------------------
Ab--7--7--7--7--8--5--7--10--8--7--7--7---||--|-------------------------
Eb----------------------------------------||--|-------------------------


 Mega Crunch distortion,guitar alone except for accents on chords
EB----------------------------------------------------------------------
Bb----------------------------------------------------------------------
Gb----------------------------------------------------------------------
Db--2--------2--------2--------------------2-----------2--------2-------
Ab--2--------2--------2-----------5-----4--2-----------2--------2-------
Eb--0--0--0--0--0--0--0--0--0-----3--0--2--0--0--0--0--0--0--0--0-------
                                                                        

                                
                                        
EB-----------------------------------------------------------------|----
Bb-----------------------------------------------------------------|----
Gb-----------------------------------------------------------------|----
Db-----------2--------2--------2--------------------2-----------7--|----
Ab--3--5-----2--------2--------2-----------5-----4--2-----5--4--5--|----
Eb--1--3-----0--0--0--0--0--0--0--0--0-----3--0--2--0--0--3--2-----|----
                                                                        
      Whole band in now
EB--||------------------------------------------------------------------
Bb--||------------------------------------------------------------------
Gb--||*-----------------------------------------------------------------
Db--||*--2--------2--------------------2--------2-----2-----------------
Ab--||---2--------2--------------------2--------2-----2-----------------
Eb--||---0--0--0--0--0--0---0-1--2--3--0--0--0--0--0--0-----0--2--3-----
                                                                        

                                               2x                       
EB---------------------------------------------||-----------------------
Bb---------------------------------------------||-----------------------
Gb--------------------------------------------*||-----------------------
Db--2--------2-----2---------------2--------7--*||-----------------------
Ab--2--------2-----2---------------2--5--4--5---||-----------------------
Eb--0--0--0--0--0--0---0--1--2--3--0--3--2------||-----------------------
                                                                        

                                                                        
EB----------------------------------------------------------------------
Bb----------------------------------------------------------------------
Gb----------------------------------------------------------------------
Db----------------------------------------------------------------------
Ab--2-----2-----2-----3-----3-----3-----3-----0-----0-----0-----2-------
Eb-----0-----0-----0-----0-----0-----0-----0-----0-----0-----0-----0----
                                                                        

                      2x                                                     
EB--------------------||
Bb--------------------||
Gb-----------3------3*||
Db-----------3------3-*||
Ab--2-----2--1------1-||
Eb-----0--------------||

        Insanely fast. Inhumanly tight. Accent on first or each triplet
EB--||------------------------------------------------------------------
Bb--||------------------------------------------------------------------
Gb--||*-----------------------------------------------------------------
Db--||*-----------------------------------------------------------------
Ab--||------------------------------------------------------------------
Eb--||---10--10--10-----10--10--10-----11--11--11-----8--8--8-----10----

EB----------------------------------------------------------------------
Bb----------------------------------------------------------------------
Gb----------------------------------------------------------------------
Db----------------------------------------------------------------------
Ab----------------------------------------------------------------------
Eb--10--10-----10--10--10-----11--11--11-----8--8--8-----10--10--10-----
                                                                        

     Second guitar play two frets higher(5ths) on G string (well, gb) 4x            
EB--------------------------------------------------------||------------
Bb--------------------------------------------------------||------------
Gb-------------------------------------------------------*||------------
Db-----8--7--8--7--10--8--7--8--7--8--7--8--10--8--7--8--*||------------
Ab--------------------------------------------------------||------------
Eb--------------------------------------------------------||------------
                                                                        

Clean, chorus. Distorted chords on bottom. 
                                                     
Eb--||---------------5-----------------------5--------------------------
Bb--||------------5-----5-----------------5-----5-----------------6-----
Gb--||*--------7-----------7-----------7-----------7-----------8--------
Db--||*-----7-----------------7-----7-----------------7-----8-----------
Ab--||---5-----------------------5-----------------------6--------------
Eb--||------------------------------------------------------------------
         Dm   (carry to next chord)                      d#m                                                            

                                         4x                             
Eb--6-----------------------6------------||-----------------------------
Bb-----6-----------------6-----6---------||-----------------------------
Gb--------8-----------8-----------8-----*||-----------------------------
Db-----------8-----8-----------------8--*||-----------------------------
Ab--------------6------------------------||-----------------------------
Eb---------------------------------------||-----------------------------

                                                                        
         sailing slowly through the river of blood...
Eb--||---------------3-----------------------3--------------------------
Bb--||------------3-----3-----------------3-----3-----------------2-----
Gb--||*--------5-----------5-----------5-----------5-----------4--------
Db--||*-----5-----------------5-----5-----------------5-----4-----------
Ab--||---3-----------------------3-----------------------2--------------
Eb--||------------------------------------------------------------------
         Cm                                              Bm                 
                                         2x                             
Eb--2-----------------------2------------||-----------------------------
Bb-----2-----------------2-----2---------||-----------------------------
Gb--------4-----------4-----------4-----*||-----------------------------
Db-----------4-----4-----------------4--*||-----------------------------
Ab--------------2------------------------||-----------------------------
Eb---------------------------------------||-----------------------------
                                                                        

                                                      

      The twisted beast he laughs                   
Eb--||---------------7-----------------------7--------------------------
Bb--||------------7-----7-----------------7-----7-----------------------
Gb--||*--------9-----------9-----------9-----------9------------10------
Db--||*-----9-----------------9-----9-----------------9-----10----------
Ab--||---7-----------------------7-----------------------8--------------
Eb--||------------------------------------------------------------------
         Em                                              Fm                 

                                                  4x                    
Eb-----8---------------------------8--------------||--------------------
Bb--8-----8---------------------8-----8-----------||--------------------
Gb-----------10-------------10-----------10------*||--------------------
Db---------------10-----10-------------------10--*||--------------------
Ab-------------------8----------------------------||--------------------
Eb------------------------------------------------||--------------------
                                                                        
 
    Distorted crunch again ,here and there let the b(5th string 2nd 
fret) sound out                                        
EB--||------------------------------------------------------------------
Bb--||------------------------------------------------------------------
Gb--||*-----------------------------------------------------------------
Db--||*-----------------------------------------------------------------
Ab--||------------------------------------------------------------------
Eb--||---0-----0--0--0--------0-----0--0--0-----0-----0--0--0-----0-----
        (lots of mumbo jumbo Latin? spoken here)

                                               16x                      
EB---------------------------------------------||-----------------------
Bb---------------------------------------------||-----------------------
Gb--------------------------------------------*||-----------------------
Db--------------------------------------------*||-----------------------
Ab---------------------------------------------||-----------------------
Eb-----0--0--0-----0--0--0--0--0--0--0--0--0---||-----------------------
                                                                        

       (Just do this part how you know it                               
EB----------------------------------------------------------------------
Bb----------------------------------------------------------------------
Gb----------------------------------------------------------------------
Db----------------------------------------------------------------------
Ab--3-----3--3--3-----3-----3--3--3-----3-------------------------------
Eb----------------------------------------------------------------------
     "Lucifer"(whispered)                                                                

                                  
EB----------------------------------------------------------------------
Bb----------------------------------------------------------------------
Gb----------------------------------------------------------------------
Db----------------------------------------------------------------------
Ab-----3--3--3--3-----3--3--3-----3--3----------------------------------
Eb----------------------------------------------------------------------
                                                                        


    where extra notes may be missed                                     
EB----------------------------------------------------------------------
Bb----------------------------------------------------------------------
Gb----------------------------------------------------------------------
Db----------------------------------------------------------------------
Ab--3--3-----3-----3--3--3-----3--3--3-----4-----4--4--4-----4-----4----
Eb----------------------------------------------------------------------
                                                                        

                                                                        
EB----------------------------------------------------------------------
Bb----------------------------------------------------------------------
Gb----------------------------------------------------------------------
Db----------------------------------------------------------------------
Ab--4--4-----4-----4--4--4--4-----4--4--4-----4--4--4--4-----4-----4----
Eb----------------------------------------------------------------------
                                                                        

                                                                        
EB----------------------------------------------------------------------
Bb----------------------------------------------------------------------
Gb----------------------------------------------------------------------
Db----------------------------------------------------------------------
Ab--4--4-----4-----4--4--4--4-----4-----4--4--4-----3-----3--3--3-------
Eb----------------------------------------------------------------------
                                                                        

                                                                        
EB----------------------------------------------------------------------
Bb----------------------------------------------------------------------
Gb----------------------------------------------------------------------
Db----------------------------------------------------------------------
Ab--3-----3--3--3-----3-----3--3--3-----3-----3--3--3-----3--3--3--3----
Eb----------------------------------------------------------------------
                                                                        

                                                                        
EB----------------------------------------------------------------------
Bb----------------------------------------------------------------------
Gb----------------------------------------------------------------------
Db----------------------------------------------------------------------
Ab-----3-----3--3--3-----3-----3--3--3-----3--3--3--3-----4--4--4--4----
Eb----------------------------------------------------------------------
                                                                        

                                                  3x                    
EB------------------------------------------------||--------------------
Bb------------------------------------------------||--------------------
Gb-----------------------------------------------*||--------------------
Db-----------------------------------------------*||--------------------
Ab-----3--3--3--3-----4--4--4--4-----3--3--3--3---||--------------------
Eb------------------------------------------------||--------------------
             
                                                           

EB--||------------------------------------------------------------------
Bb--||------------------------------------------------------------------
Gb--||*-----------------------------------------------------------------
Db--||*--3--3--2-----------3-----3---------3--3--2-----------3--3--2----
Ab--||---3--3--2-----------3-----3---------3--3--2-----------3--3--2----
Eb--||---1--1--0--0--0--0--1--0--1--0h1p0--1--1--0--0--0--0--1--1--0----
         LUCIFER!  (my favorite part) 

              6x                                                        
EB------------||--------------------------------------------------------
Bb------------||--------------------------------------------------------
Gb-----------*||--------------------------------------------------------
Db-----------*||--3--3--3--2--------------------------------------------
Ab------------||--3--3--3--2--------------------------------------------
Eb--0--0--0---||--1--1--1--0--------------------------------------------
                                                                        

                                                                        
EB--||------------------------------------------------------------------
Bb--||------------------------------------------------------------------
Gb--||*-----------------------------------------------------3-----------
Db--||*-----------2--------------2--------2-----------2-----3-----------
Ab--||------------2--------------2--------2-----------2-----1-----1-----
Eb--||---0--0--0--0-----0--0--0--0--0--0--0-----0--0--0--0--------------
                                                                        

                                4x                                      
EB------------------------------||--------------------------------------
Bb------------------------------||--------------------------------------
Gb-----------3--3--------------*||--------------------------------------
Db-----------3--3-----3--3--2--*||--------------------------------------
Ab-----1--1--1--1-----3--3--2---||--------------------------------------
Eb--------------------1--1--0---||--------------------------------------

    Actually the bass is what moves  around here.  Guitar stays put.    
EB----------------------------------------------------------------------
Bb----------------------------------------------------------------------
Gb----------------------------------------------------------------------
Db----------------------------------------------------------------------
Ab----------------------------------------------------------------------
Eb--0-----0--0--0-----0-----0--0--0-----0-----0--0--0-----0-----0--0----
                                                                        

       Also, you should know the rhythm to                              
EB----------------------------------------------------------------------
Bb----------------------------------------------------------------------
Gb----------------------------------------------------------------------
Db----------------------------------------------------------------------
Ab----------------------------------------------------------------------
Eb--0-----0-----0--0--0-----0-----0--0--0-------------------------------
                                                                        


    play, as its really hard to get it across with tab.                 
EB----------------------------------------------------------------------
Bb----------------------------------------------------------------------
Gb----------------------------------------------------------------------
Db----------------------------------------------------------------------
Ab----------------------------------------------------------------------
Eb-----0-----0--0--0-----0-----0--0--0--0-----0-----0--0--0-----0-------
                                                                        

                    6x                                                  
EB------------------||--------------------------------------------------
Bb------------------||--------------------------------------------------
Gb-----------------*||--------------------------------------------------
Db-----------------*||--------------------------------------------------
Ab------------------||--------------------------------------------------
Eb--0--0-----0--0---||--------------------------------------------------
                                                                        
Total Time: 16:28
Tap to rate this tab
# A B C D E F G H I J K L M N O P Q R S T U V W X Y Z