Song name
# A B C D E F G H I J K L M N O P Q R S T U V W X Y Z

Iced Earth - Iced Earth tab

#----------------------------------PLEASE NOTE---------------------------------#
#This file is the author's own work and represents their interpretation of the #
#song. You may only use this file for private study, scholarship, or research. #
#------------------------------------------------------------------------------#

ICED EARTH
As recorded by Iced Earth
(From the 1991 Album ICED EARTH)


Transcribed by Calum Gibb

 Words by Adams Music by Schaffer
Arranged by Schaffer
 

F#5
2 4 x x x x F#5XIV
14 16 x x x x B5
x 2 4 x x x C5
x 3 5 x x x 
G5
3 5 x x x x F#5IX
x 9 11 x x x G#5
x 11 13 x x x E5
x 7 9 x x x 
F#5IV
x x 4 6 x x E5II
x x 2 4 x x G5V
x x 5 7 x x A5
x x 7 9 x x 
F5
x x 3 5 x x C/E
x 7 10 x x x B/Eb
x 6 9 x x x Eb5
x 6 8 x x x 
E5open
0 2 x x x x 


Gtr I (Eb Ab Db Gb Bb Eb) - 'Untitled'
Gtr II (Eb Ab Db Gb Bb Eb) - 'Untitled'
Gtr III (Eb Ab Db Gb Bb Eb) - 'Untitled'
Gtr IV (Eb Ab Db Gb Bb Eb) - 'Untitled'


 Intro
  Q=140
  F#5
 4/4
  Gtr I
       ~~~~~~~
  Q  E Q.   Q    Q     Q     Q     S S E
|--------------|-------------------------|
|----7-8----8--|-7tr8--7tr8--7tr8--7-8-3-|
|--------------|-------------------------|
|--------------|-------------------------|
|-4------------|-------------------------|
|-2------------|-------------------------|
|
| Gtr II
|      ~~~~~~~
| Q  E Q.   Q    Q     Q     Q     S S E
|--------------|-------------------------|
|--------------|-------------------------|
|----4-5----5--|-4tr5--4tr5--4tr5--4-5---|
|--------------|-----------------------5-|
|-4------------|-------------------------|
|-2------------|-------------------------|


  F#5
       ~~~~~~~
  Q  E Q.   Q    Q     Q     Q     S S E
|--------------|-------------------------|
|--------------|-------------------------|
|----7-6----6--|-6tr7--6tr7--6tr7--6-7-2-|
|--------------|-------------------------|
|-4------------|-------------------------|
|-2------------|-------------------------|
|
|      ~~~~~~~
| Q  E Q.   Q    Q     Q     Q     S S E
|--------------|-------------------------|
|--------------|-------------------------|
|--------------|-------------------------|
|----5-4----4--|-4tr5--4tr5--4tr5--4-5---|
|-4------------|-----------------------5-|
|-2------------|-------------------------|


  F#5
       ~~~~~~~
  Q  E Q.   Q    Q     Q     Q     S S E
|--------------|-------------------------|
|----7-8----8--|-7tr8--7tr8--7tr8--7-8-3-|
|--------------|-------------------------|
|--------------|-------------------------|
|-4------------|-------------------------|
|-2------------|-------------------------|
|
|      ~~~~~~~                         ~
| Q  E Q.   Q    Q     Q     Q     S S E
|--------------|-------------------------|
|--------------|-------------------------|
|----4-5----5--|-4tr5--4tr5--4tr5--4-5---|
|--------------|-----------------------5-|
|-4------------|-------------------------|
|-2------------|-------------------------|


  F#5                              F#5XIV
       ~~~~~~~
  Q  E Q.   Q    Q     Q     Q      Q
|--------------|------------------------|
|--------------|------------------------|
|----7-6----6--|-6tr7--6tr7--6tr7-------|
|--------------|------------------------|
|-4------------|-------------------16\--|
|-2------------|-------------------14\--|
|
|      ~~~~~~~
| Q  E Q.   Q    Q     Q     Q      Q
|--------------|------------------------|
|--------------|------------------------|
|--------------|------------------------|
|----5-4----4--|-4tr5--4tr5--4tr5-------|
|-4------------|-------------------16\--|
|-2------------|-------------------14\--|


   Verse
    F#5   B5C5
    Gtrs I, II
      PM|     PM|     PM|     PM|    PM----|
    E S S E E S S E E S S   E S S Q  S S S S S S E
||------------------------|------------------------|
||o-----------------------|------------------------|
||------------------------|------------------------|
||--------4-5-----5-5-----|-5-----5----------------|
||o-4-----2-3-3-3-3-3-3-3-|-3-3-3-3--3-3-3-3-3p2p0-|
||--2-2-2-----------------|------------------------|


  F#5   G5F#5
    PM|     PM|     PM|     PM|
  E S S E E S S E E S S   E S S Q  S S S S S S E     6x
|-----------------------|----------------------------||
|-----------------------|---------------------------o||
|-----------------------|----------------------------||
|-----------------------|----------------------------||
|-4-----5-4-----4-4-----|-4-----4-------------------o||
|-2-2-2-3-2-2-2-2-2-2-2-|-2-2-2-2--2-2-2-2-3-2-0-----||


 Guitar Break
  F#5                                           F#5XIV
  E H    Q  E   Wx5          W          H.       Q
|-------------|------------|----------|---------------|
|-------------|------------|----------|---------------|
|-------------|------------|----------|---------------|
|-------------|------------|----------|---------------|
|-4-----------|------------|----------|---------16\---|
|-2-----------|------------|----------|---------14\---|


   Verse 2
    F#5   B5C5
      PM|     PM|     PM|     PM|    PM----|
    E S S E E S S E E S S   E S S Q  S S S S S S E
||------------------------|------------------------|
||o-----------------------|------------------------|
||------------------------|------------------------|
||--------4-5-----5-5-----|-5-----5----------------|
||o-4-----2-3-3-3-3-3-3-3-|-3-3-3-3--3-3-3-3-3p2p0-|
||--2-2-2-----------------|------------------------|


  F#5   G5F#5
    PM|     PM|     PM|     PM|
  E S S E E S S E E S S   E S S Q  S S S S S S E     4x
|-----------------------|----------------------------||
|-----------------------|---------------------------o||
|-----------------------|----------------------------||
|-----------------------|----------------------------||
|-4-----5-4-----4-4-----|-4-----4-------------------o||
|-2-2-2-3-2-2-2-2-2-2-2-|-2-2-2-2--2-2-2-2-3-2-0-----||


    Gtr III
    E Q  Q  E Q    E Q  Q  E Q    E Q  Q  E E E   E E  Q  E  E  Q   4x
||---------------|--------------|---------------|-------------------||
||o------7-------|------9-------|------5--------|-----10-------12--o||
||----6-----6----|---8-----8----|---4-----4---4-|---9-------11------||
||--4---------4--|-6---------6--|-2---------2---|-7-------9---------||
||o--------------|--------------|---------------|------------------o||
||---------------|--------------|---------------|-------------------||


    F#5IX                G#5
    Gtrs I, II
     E  E E  H     +E     E  E E  H     +E
||---------------------|--------------------|
||o--------------------|--------------------|
||---------------------|--------------------|
||--11-11---11----(11)-|-13-13---13----(13)-|
||o--9--9----9-----(9)-|-11-11---11----(11)-|
||---------------------|--------------------|


  E5
               PM----|      PM--|
  E E E Q.   E S S   E E  E S S E  E  E E
|------------------|-----------------------||
|------------------|-----10----------12---o||
|------------------|---9----------11-------||
|-9-9---9----9-7-7-|-7------9-9-9----------||
|-7-7---7----7-----|----------------------o||
|------------------|-----------------------||


    F#5IX               G#5
     E  E E  Q.    Q     E  E E  Q.    Q
||--------------------|-------------------|
||o-------------------|-------------------|
||--------------------|-------------------|
||--11-11---11----11--|-13-13---13----13--|
||o--9--9----9-----9--|-11-11---11----11--|
||--------------------|-------------------|


  E5
               PM----|      PM--|
  E E E Q.   E S S   E E  E S S E  E  E E
|------------------|-----------------------||
|------------------|-----10----------12---o||
|------------------|---9----------11-------||
|-9-9---9----9-7-7-|-7------9-9-9----------||
|-7-7---7----7-----|----------------------o||
|------------------|-----------------------||


   Interlude
    Q=156
    Gtr I
    H    +Q    E  E    H     +E   E  E  E   H.      +E  E   E E  E E E  E E  E
||------------------|---------------------|---------------|--------------------|
||o-----------------|---------------------|---------------|--------------------|
||------------------|---------------------|---------------|--------------------|
||------------------|---------------------|---------------|--------------------|
||o------------4--5-|--4-----(4)--4--5--4-|---------------|-2-3--5-3-2---------|
||--2----(2)--------|---------------------|-3-------(3)-3-|-------------5-3--0-|
|
|   Gtr II
|   H    +Q    E  E    H     +E   E  E  E   H.      +E  E   E E  E E E  E E  E
||------------------|---------------------|---------------|--------------------|
||o-----------------|---------------------|---------------|--------------------|
||------------10-11-|-10----(10)-10-11-10-|---------------|-8-9-11-9-8---------|
||--8----(8)--------|---------------------|-9-------(9)-9-|------------11-9----|
||o-----------------|---------------------|---------------|-----------------11-|
||------------------|---------------------|---------------|--------------------|


                   1.
  H    +Q    E  E    H     +E   E  E  E   W           E E E  E E E  E E
|-----------------|---------------------|----------|----------------------||
|-----------------|---------------------|----------|---------------------o||
|-----------------|---------------------|----------|----------------------||
|-----------------|---------------------|----------|----------------------||
|------------4--5-|--4-----(4)--4--5--4-|-2--------|---------------------o||
|-2----(2)--------|---------------------|----------|--5-3-2--5-3-2--5-3---||
|
| H    +Q    E  E    H     +E   E  E  E   W           E E E  E E E  E E
|-----------------|---------------------|----------|----------------------||
|-----------------|---------------------|----------|---------------------o||
|-----------10-11-|-10----(10)-10-11-10-|-8--------|----------------------||
|-8----(8)--------|---------------------|----------|-11-9-8-11-9-8-11-9---||
|-----------------|---------------------|----------|---------------------o||
|-----------------|---------------------|----------|----------------------||


  2.
                                                        F#5
   H     +E   E  E  E   W           E E E  E E E  E E   W
|---------------------|----------|--------------------|--------------|
|---------------------|----------|--------------------|--------------|
|---------------------|----------|--------------------|--------------|
|---------------------|----------|--------------------|--------------|
|--4-----(4)--4--5--4-|-2--------|--------------------|-4------------|
|---------------------|----------|--5-3-2--5-3-2--5-3-|-2------------|
|
|  H     +E   E  E  E   W           E E E  E E E  E E   Q  +Q   H
|---------------------|----------|--------------------|--------------|
|---------------------|----------|--------------------|--------------|
|-10----(10)-10-11-10-|-8--------|--------------------|--------------|
|---------------------|----------|-11-9-8-11-9-8-11-9-|-8--(8)s=4----|
|---------------------|----------|--------------------|--------------|
|---------------------|----------|--------------------|--------------|


 Bridge
  Q=200
  F#5IV
      PM--------------|     PM--------------|
   E  S S E S S E S S E E   E E E S S E S S E E
|-------------------------|---------------------|
|-------------------------|---------------------|
|--6--------------------6-|-------------------7-|
|--4--4-4-4-4-4-4-4-4-4---|-4-4-4-4-4-4-4-4-4---|
|-------------------------|---------------------|
|-------------------------|---------------------|
|
| +W                        W
|-------------------------|---------------------|
|-------------------------|---------------------|
|-------------------------|---------------------|
|-(4)---------------------|---------------------|
|-------------------------|---------------------|
|-------------------------|---------------------|


                                E5II
  PM--------------|     PM----|
  E E E S S E S S E E   E E E E Q  Q
|---------------------|----------------|
|---------------------|----------------|
|-------------------6-|---------4--4---|
|-4-4-4-4-4-4-4-4-4---|-4-4-4-4-2--2---|
|---------------------|----------------|
|---------------------|----------------|
|
| W                     H       Q  Q
|---------------------|----------------|
|---------------------|----------------|
|---------------------|---------4--4---|
|---------------------|---------2--2---|
|---------------------|----------------|
|---------------------|----------------|


  F#5IV                                       G5V
    PM---------------|     PM---------------|
  E S  S E S S E S S E E   E  E E S S E S S E E
|------------------------|----------------------|
|------------------------|----------------------|
|-6--------------------6-|--------------------7-|
|-4-4--4-4-4-4-4-4-4-4---|-4--4-4-4-4-4-4-4-4---|
|------------------------|----------------------|
|------------------------|----------------------|
|
| E H.                 E   H.               E E
|------------------------|----------------------|
|------------------------|----------------------|
|-6--------------------6-|--------------------7-|
|-4--------------------4-|--------------------5-|
|------------------------|----------------------|
|------------------------|----------------------|


                     F#5IV       E5II
  PM---------------|     PM----|
  E E  E S S E S S E E   E E E E Q  Q
|----------------------|----------------|
|----------------------|----------------|
|--------------------6-|---------4--4---|
|-4-4--4-4-4-4-4-4-4---|-4-4-4-4-2--2---|
|----------------------|----------------|
|----------------------|----------------|
|
| E H.               E   H       Q  Q
|----------------------|----------------|
|----------------------|----------------|
|--------------------6-|---------4--4---|
|--------------------4-|---------2--2---|
|----------------------|----------------|
|----------------------|----------------|


    F#5IV
    Gtrs I, II
      PM--------------|     PM--------------|
    E S S E S S E S S E E   E E E S S E S S E E
||------------------------|---------------------|
||o-----------------------|---------------------|
||--6-------------------6-|-------------------7-|
||--4-4-4-4-4-4-4-4-4-4---|-4-4-4-4-4-4-4-4-4---|
||o-----------------------|---------------------|
||------------------------|---------------------|


                                E5II
  PM--------------|     PM----|
  E E E S S E S S E E   E E E E Q  Q
|---------------------|----------------||
|---------------------|---------------o||
|-------------------6-|---------4--4---||
|-4-4-4-4-4-4-4-4-4---|-4-4-4-4-2--2---||
|---------------------|---------------o||
|---------------------|----------------||


    A5
      PM--------------|     PM--------------|
    E S S E S S E S S E E   E E E S S E S S E  E
||------------------------|----------------------|
||o-----------------------|----------------------|
||--9-------------------9-|-------------------10-|
||--7-7-7-7-7-7-7-7-7-7---|-7-7-7-7-7-7-7-7-7----|
||o-----------------------|----------------------|
||------------------------|----------------------|


                                G5V
  PM--------------|     PM----|
  E E E S S E S S E E   E E E E Q  Q
|---------------------|----------------||
|---------------------|---------------o||
|-------------------9-|---------7--7---||
|-7-7-7-7-7-7-7-7-7---|-7-7-7-7-5--5---||
|---------------------|---------------o||
|---------------------|----------------||


  F5             E5II
                               |-3-| |-3-|
  Q  E S S E E E E   +E  E E E E E E E E E
|------------------|-----------------------|
|------------------|-----------------------|
|-5--------------4-|-(4)-4-4-4-------------|
|-3--3-3-3-3-5-3-2-|-(2)-2-2-2-3p2p0-------|
|------------------|-----------------3p2p0-|
|------------------|-----------------------|


  F5             E5II          E5open
                         PM--|    PM|
  Q  E S S E E E E   +E  E E E Q  E E
|------------------|-------------------|
|------------------|-------------------|
|-5--------------4-|-(4)---------------|
|-3--3-3-3-3-5-3-2-|-(2)---------------|
|------------------|-----------2-------|
|------------------|-----0-0-0-0--0-0--|


  F5             E5II
                               |-3-| |-3-|
  Q  E S S E E E E   +E  E E E E E E E E E
|------------------|-----------------------|
|------------------|-----------------------|
|-5--------------4-|-(4)-4-4-4-------------|
|-3--3-3-3-3-5-3-2-|-(2)-2-2-2-3p2p0-------|
|------------------|-----------------3p2p0-|
|------------------|-----------------------|


  F5             E5II          E5open
                         PM--|
  Q  E S S E E E E   +E  E E E Q   Q
|------------------|--------------------|
|------------------|--------------------|
|-5--------------4-|-(4)----------------|
|-3--3-3-3-3-5-3-2-|-(2)----------------|
|------------------|-----------2--------|
|------------------|-----0-0-0-0--12\---|


    E5open         C5
       PM--------|         PM------------|
    Q  E S S E E E E   +E  E S S E E E E E
||-------------------|---------------------|
||o------------------|---------------------|
||-------------------|---------------------|
||-----------------5-|-(5)-----------------|
||o-2--------------3-|-(3)-3-3-3-3-3-3-3-0-|
||--0--0-0-0-0-0-0---|---------------------|


  E5open         B5
     PM--------|
  Q  E S S E E E E   +E  E E E E E E E
|------------------|-------------------|
|------------------|-------------------|
|------------------|-------------------|
|----------------4-|-(4)---------------|
|-2--------------2-|-(2)-2-5-3-2-------|
|-0--0-0-0-0-0-0---|-------------5-3-2-|


  1.
  E5open         G5                     F#5                C5   E5open
     PM--------|                                   PM--|      PM   PM--|
  Q  E S S E E E E   +E  E E E Q  E E   Q  E S S E E E E   Q  E Q  E E E
|------------------|------------------|------------------|------------------||
|------------------|------------------|------------------|-----------------o||
|------------------|------------------|------------------|------------------||
|------------------|------------------|------------------|-5----------------||
|-2--------------5-|-(5)-------5--5---|-4----------5-3-0-|-3----2----------o||
|-0--0-0-0-0-0-0-3-|-(3)-3-3-3-3--3-0-|-2--2-2-2-2-------|----0-0--0-0-0----||


 Guitar Solo 1
  2.
  E5open         G5
     PM--------|
  Q  E S S E E E E   +E  E E E Q  E E
|------------------|------------------|
|------------------|------------------|
|------------------|------------------|
|------------------|------------------|
|-2--------------5-|-(5)-------5--5---|
|-0--0-0-0-0-0-0-3-|-(3)-3-3-3-3--3-0-|
|
| Gtr IV
| W                   W
|------------------|------------------|
|------------------|------------------|
|------------------|------------------|
|------------------|------------------|
|------------------|------------------|
|------------------|------------------|


  F#5                   C5    E5open
              PM---|        PM      PM---|
  Q  E S S E  E  E  E    Q  E  Q    E  E E
|---------------------|----------------------|
|---------------------|----------------------|
|---------------------|----------------------|
|---------------------|--5-------------------|
|-4-----------5--3--0-|--3-----2-------------|
|-2--2-2-2-2----------|-----0--0----0--0-0---|
|
|                              ~~
| H        E  E  E  E    Q  E  Q   +Q.
|---------------------|----------------------|
|------------15-13-10-|-13S=x----------------|
|---------------------|----------------------|
|---------------------|-------14--(14)-------|
|---------------------|----------------------|
|---------------------|----------------------|


  E5open                            C5
   Q      E     S S  E  E     E     E   +E   E  S S  E E  E E  E
|-------------------------------------|--------------------------|
|-------------------------------------|--------------------------|
|-------------------------------------|--------------------------|
|-----------------------------------5-|-(5)----------------------|
|--2--------------------------------3-|-(3)--3--3-3--3-3--3-3--0-|
|--0------0-----0-0--0--0-----0-------|--------------------------|
|
|                                                              ~~~
|  |----3----|       |-----3-----|
|  Q   Q     Q       Q     Q     Q       E   E  E    Q    Q    E
|-------------------<5>---------------|-15--17-15--------19------|
|-----------<5>-----------<5>---------|-------------17-----------|
|-----<5>-----------------------<5>---|-----------------------16-|
|-<5>---------------------------------|--------------------------|
|-------------------------------------|--------------------------|
|-------------------------------------|--------------------------|


  E5open               B5
    Q   E S S   E  E E  E   +E   E     S S  E     E  E     E  E
|-------------------------|-----------------------------------------|
|-------------------------|-----------------------------------------|
|-------------------------|-----------------------------------------|
|-----------------------4-|-(4)-------------------------------------|
|---2-------------------2-|-(2)--2-----2-2--2-----2--2-----2--0-----|
|---0---0-0-0---0--0-0----|-----------------------------------------|
|
|~~~~~~
|  +H          +Q.      E    E   S  S  E    S  S  E  S  S  E  S  S
|-------------------------|-20--------19---------17-------15--------|
|----------------------20-|-20--20-20-19---19-19-17-17-17-15-15-15--|
|-(16)--------(16)--------|-----------------------------------------|
|-------------------------|-----------------------------------------|
|-------------------------|-----------------------------------------|
|-------------------------|-----------------------------------------|


  E5open              G5
   Q     E  S S E E E   E    +E     E E E  Q      E E
|--------------------------|--------------------------|
|--------------------------|--------------------------|
|--------------------------|--------------------------|
|--------------------------|--------------------------|
|--2--------------------5--|-(5)-----------5------5---|
|--0-----0--0-0-0-0-0---3--|-(3)----3-3-3--3------3-0-|
|
|           ~~
|  E  E  E  H          +E     H            H
|-17-17-19-----------------|-12tr15-------------------|
|-17-17----17---------(17)-|--------------12tr15------|
|--------------------------|--------------------------|
|--------------------------|--------------------------|
|--------------------------|--------------------------|
|--------------------------|--------------------------|


  F#5                       C5    E5open
   Q  E S S   E   E  E  E    Q  E  Q    E  E E
|-------------------------|----------------------|
|-------------------------|----------------------|
|-------------------------|----------------------|
|-------------------------|--5-------------------|
|--4--------------5--3--0-|--3-----2-------------|
|--2--2-2-2---2-----------|-----0--0----0--0-0---|
|
|  ~~                              ~~
|  H         +E   E  E  E    Q  E  Q   +Q.
|-------------------------|----------------------|
|-15--------(15)-15-13-10-|-13S=x----------------|
|-16--------(16)----------|----------------------|
|-------------------------|-------14--(14)-------|
|-------------------------|----------------------|
|-------------------------|----------------------|


  E5open                                 C5
   Q        E    S    S  E    E     E    E      +E    E     S S    E     E    E     E    E
|---------------------------------------------|-----------------------------------------------|
|---------------------------------------------|-----------------------------------------------|
|---------------------------------------------|-----------------------------------------------|
|----------------------------------------5----|-(5)-------------------------------------------|
|--2-------------------------------------3----|-(3)---3-----3-3----3-----3----3-----3----0----|
|--0--------0----0----0--0----0-----0---------|-----------------------------------------------|
|
|  |--3--|  |---3---|    |---3---|  |---3---|    |---3---|  |----3----|  |---3---|  |---3---|
|  E  E  E  E  E    E    E  E    E  E  E    E    E  E    E  E    E    E  E  E    E  E  E    E
|-17p15p12--------------17p15p==12------------|-17p15p==12--------------17p15p==12------------|
|----------12h15h==17--------------12h15h==17-|------------12h==15h==17------------12h15h==17-|
|---------------------------------------------|-----------------------------------------------|
|---------------------------------------------|-----------------------------------------------|
|---------------------------------------------|-----------------------------------------------|
|---------------------------------------------|-----------------------------------------------|


  E5open          B5
   Q  E S S E E E E   +E  E   S S   E  E E    E   E
|-------------------|--------------------------------|
|-------------------|--------------------------------|
|-------------------|--------------------------------|
|-----------------4-|-(4)----------------------------|
|--2--------------2-|-(2)-2---2-2---2--2-2----2---0--|
|--0--0-0-0-0-0-0---|--------------------------------|
|
|  ~~
|                      |----3-----|    |---3----|
|  W                   Q    Q     Q    Q    Q   Q
|-------------------|--------------------------------|
|-17----------------|--------------------------------|
|-------------------|-11----9-----7-------------9----|
|-------------------|-----------------11---12--------|
|-------------------|--------------------------------|
|-------------------|--------------------------------|


  E5open             G5
  Q   E   S S  E E E E   +E    E     E    E     Q        E    E
|----------------------|-------------------------------------------|
|----------------------|-------------------------------------------|
|----------------------|-------------------------------------------|
|----------------------|-------------------------------------------|
|-2------------------5-|-(5)--------------------5--------5---------|
|-0---0---0-0--0-0-0-3-|-(3)---3-----3----3-----3--------3----0----|
|
| |--3--|                 |---3---|  |---3---|  |--3--|  |---3---|
| Q Q   Q      H          E  E    E  E  E    E  E  E  E  E  E    E
|-------------12-------|-------------------------------------------|
|----------------------|-------------------------------------------|
|---9------------------|-----------------------16h18h19-16h18h==19-|
|-9-----9--------------|-16h18h==19-16h18h==19---------------------|
|----------------------|-------------------------------------------|
|----------------------|-------------------------------------------|


  F#5                                           C5    E5open
   Q        E    S    S  E    E     E    E       Q  E Q  E E E
|---------------------------------------------|------------------|
|---------------------------------------------|------------------|
|---------------------------------------------|------------------|
|---------------------------------------------|--5---------------|
|--4--------------------------5-----3----0----|--3----2----------|
|--2--------2----2----2--2--------------------|-----0-0--0-0-0---|
|
|                                                ~~
|  |--3--|  |---3---|    |---3---|  |---3---|
|  E  E  E  E  E    E    E  E    E  E  E    E    W
|-----------------------17h19h==20-17h19h==20-|-19---------------|
|-17h19h20-17h19h==20-------------------------|------------------|
|---------------------------------------------|------------------|
|---------------------------------------------|------------------|
|---------------------------------------------|------------------|
|---------------------------------------------|------------------|


 Breakdown
  Q=140
  PM--|   PM------|   PM--------|   PM------|   PM---
  |-3-| |-3-| |-3-| |-3-|   |-3-| |-3-| |-3-| |-3-|
  E E E E E E E E E E E E   E E E E E E E E E E E E
|-------------------------|-------------------------|
|-------------------------|-------------------------|
|-------------------------|-------------------------|
|-------------------------|-------------------------|
|-------4-----------2-----|-------4-----------2-----|
|-2-2-2---2-2-3-3-3---3-3-|-2-2-2---2-2-3-3-3---3-3-|


 -----|   PM------|   PM--------|   PM------|   PM|
  |-3-| |-3-| |-3-| |-3-|   |-3-| |-3-| |-3-| |-3-|
  E E E E E E E E E E E E   E E E E E E E E E E E E
|-------------------------|---------------------------|
|-------------------------|---------------------------|
|-------------------------|---------------------------|
|-------------------------|---------------------------|
|-------5-----------3-----|-------5-----------3-------|
|-3-3-3---3-3-4-4-4---4-4-|-3-3-3---3-3-4-4-4---4-4---|


  PM--|   PM------|   PM--------|   PM------|   PM---
  |-3-| |-3-| |-3-| |-3-|   |-3-| |-3-| |-3-| |-3-|
  E E E E E E E E E E E E   E E E E E E E E E E E E
|-------------------------|-------------------------|
|-------------------------|-------------------------|
|-------------------------|-------------------------|
|-------------------------|-------------------------|
|-------4-----------2-----|-------4-----------2-----|
|-2-2-2---2-2-3-3-3---3-3-|-2-2-2---2-2-3-3-3---3-3-|
|
| Gtr II
| PM--|   PM------|   PM--------|   PM------|   PM---
| |-3-| |-3-| |-3-| |-3-|   |-3-| |-3-| |-3-| |-3-|
| E E E E E E E E E E E E   E E E E E E E E E E E E
|-------------------------|-------------------------|
|-------------------------|-------------------------|
|-------6-----------4-----|-------6-----------4-----|
|-4-4-4---4-4-5-5-5---5-5-|-4-4-4---4-4-5-5-5---5-5-|
|-------------------------|-------------------------|
|-------------------------|-------------------------|


 -----|   PM------|   PM--------|   PM------|   PM|
  |-3-| |-3-| |-3-| |-3-|   |-3-| |-3-| |-3-| |-3-|
  E E E E E E E E E E E E   E E E E E E E E E E E E
|-------------------------|---------------------------|
|-------------------------|---------------------------|
|-------------------------|---------------------------|
|-------------------------|---------------------------|
|-------5-----------3-----|-------5-----------3-------|
|-3-3-3---3-3-4-4-4---4-4-|-3-3-3---3-3-4-4-4---4-4---|
|
|-----|   PM------|   PM--------|   PM------|   PM|
| |-3-| |-3-| |-3-| |-3-|   |-3-| |-3-| |-3-| |-3-|
| E E E E E E E E E E E E   E E E E E E E E E E E E
|-------------------------|---------------------------|
|-------------------------|---------------------------|
|-------7-----------5-----|-------7-----------5-------|
|-5-5-5---5-5-6-6-6---6-6-|-5-5-5---5-5-6-6-6---6-6---|
|-------------------------|---------------------------|
|-------------------------|---------------------------|


  Q=200
  E5                    C/E
    PM--|   PM--|   PM     PM--|    PM--|
  E S S E E S S E E E    E S S E  E S S E  E  E
|---------------------|-------------------------|
|---------------------|-------------------------|
|---------------------|-------------------------|
|-9-------9-------9---|-10-------10-------10-10-|
|-7-7-7-7-7-7-7-7-7-7-|--7-7-7-7--7-7-7-7--7--7-|
|---------------------|-------------------------|


  B/Eb                  Eb5
    PM--|   PM--|         PM--|   PM--|
  E S S E E S S E E E   E S S E E S S E E E
|---------------------|----------------------|
|---------------------|----------------------|
|---------------------|----------------------|
|-9-------9-------9-9-|-8-------8-------8-8--|
|-6-6-6-6-6-6-6-6-6-6-|-6-6-6-6-6-6-6-6-6-6--|
|---------------------|----------------------|


  E5                    C/E
    PM--|   PM--|   PM     PM--|    PM--|
  E S S E E S S E E E    E S S E  E S S E  E  E
|---------------------|-------------------------|
|---------------------|-------------------------|
|---------------------|-------------------------|
|-9-------9-------9---|-10-------10-------10-10-|
|-7-7-7-7-7-7-7-7-7-7-|--7-7-7-7--7-7-7-7--7--7-|
|---------------------|-------------------------|


  B/Eb                  Eb5
    PM--|   PM--|   PM    PM--|   PM--|
  E S S E E S S E E E   E S S E E S S E Q
|---------------------|----------------------|
|---------------------|----------------------|
|---------------------|----------------------|
|-9-------9-------9---|-8-------8-------8\---|
|-6-6-6-6-6-6-6-6-6-6-|-6-6-6-6-6-6-6-6-6\---|
|---------------------|----------------------|


   Verse 3
    Q=140
    F#5   B5C5
      PM|     PM|     PM|     PM|    PM----|
    E S S E E S S E E S S   E S S Q  S S S S S S E
||------------------------|------------------------|
||o-----------------------|------------------------|
||------------------------|------------------------|
||--------4-5-----5-5-----|-5-----5----------------|
||o-4-----2-3-3-3-3-3-3-3-|-3-3-3-3--3-3-3-3-3p2p0-|
||--2-2-2-----------------|------------------------|


  F#5   G5F#5
    PM|     PM|     PM|     PM|
  E S S E E S S E E S S   E S S Q  S S S S S S E
|-----------------------|----------------------------||
|-----------------------|---------------------------o||
|-----------------------|----------------------------||
|-----------------------|----------------------------||
|-4-----5-4-----4-4-----|-4-----4-------------------o||
|-2-2-2-3-2-2-2-2-2-2-2-|-2-2-2-2--2-2-2-2-3-2-0-----||


 Guitar Solo 2
  F#5          B5    C5
        PM---|             PM|               PM---|
   E    S    S  E    E     S S    E     E    S    S
|---------------------------------------------------|
|---------------------------------------------------|
|---------------------------------------------------|
|---------------4----5------------5-----5-----------|
|--4------------2----3-----3-3----3-----3----3----3-|
|--2----2----2--------------------------------------|
|
| Gtr IV
|  |---3---|    |---3---|  |----3----|  |---3---|
|  E  E    E    E  E    E  E    E    E  E  E    E
|-14-13---12---11-----------------------------------|
|-----------------15---14-13---12-------------------|
|-----------------------------------15-14-13---12---|
|---------------------------------------------------|
|---------------------------------------------------|
|---------------------------------------------------|


  F#5          G5    F#5
        PM---|             PM|     PM|
   E    S    S  E    E     S S E E S S
|---------------------------------------|
|---------------------------------------|
|---------------------------------------|
|---------------------------------------|
|--4------------5----4---------4-4------|
|--2----2----2--3----2-----2-2-2-2-2-2--|
|
|                          ~~
|  |---3---|    |---3---|
|  E  E    E    E  E    E  H
|---------------------------------------|
|---------------------------------------|
|---------------------------------------|
|-16-15---14---13---------16------------|
|-----------------17---15---------------|
|---------------------------------------|


  F#5                     B5          C5
               PM---|                             PM---|                           PM---|
   E           S     S     E          E           S     S     E           E        S     S
|---------------------------------------------------------------------------------------------|
|---------------------------------------------------------------------------------------------|
|---------------------------------------------------------------------------------------------|
|--------------------------4----------5-----------------------5-----------5-------------------|
|--4-----------------------2----------3-----------3-----3-----3-----------3--------3-----3----|
|--2-----------2-----2------------------------------------------------------------------------|
|
|  T  T  T  T  T  T  T  T  T  T  T  S    T  T  T  T  T  T  T  T  T  T  T  S  T  T  T  T  T  T
|---------------------------------------------------------------------------------------------|
|-20p19p18S17-19p18p17S16-18p17p16S15---20p19p18S17-19p18p17S16-18p17p16S15-20p19p18S17-19p18p|
|---------------------------------------------------------------------------------------------|
|---------------------------------------------------------------------------------------------|
|---------------------------------------------------------------------------------------------|
|---------------------------------------------------------------------------------------------|


  F#5                     G5       F#5
               PM---|                PM|          PM|
   E           S     S     E       E S S E E      S S
|-------------------------------------------------------|
|-------------------------------------------------------|
|-------------------------------------------------------|
|-------------------------------------------------------|
|--4-----------------------5-------4-----4-4------------|
|--2-----------2-----2-----3-------2-2-2-2-2------2-2---|
|
|                                ~~
|  T  T  T  T  T  T  T  T  T  T  H            +E.
|-------------------------------------------------------|
|-17S16-18p17p16S15-17p16S15-17h19-----------(19)-------|
|-------------------------------------------------------|
|-------------------------------------------------------|
|-------------------------------------------------------|
|-------------------------------------------------------|


  F#5         B5   C5
       PM---|           PM|              PM---|
   E   S    S  E   E    S S   E     E    S    S
|-----------------------------------------------|
|-----------------------------------------------|
|-----------------------------------------------|
|--------------4---5----------5-----5-----------|
|--4-----------2---3----3-3---3-----3----3----3-|
|--2---2----2-----------------------------------|
|
|  |--3---|    |--3---| |---3----|  |---3---|
|  E E    E    E E    E E   E    E  E  E    E
|-----------------------------------------------|
|-----------------------------------------------|
|-------------------------------------11--------|
|---------------------------9---11-12------12---|
|----------------9---10-9-----------------------|
|-10-9---10---12--------------------------------|


  F#5          G5    F#5
        PM---|             PM-|     PM|
   E    S    S  E    E     S  S E E S  S
|-----------------------------------------|
|-----------------------------------------|
|-----------------------------------------|
|-----------------------------------------|
|--4------------5----4----------4-4-------|
|--2----2----2--3----2-----2--2-2-2-2--2--|
|
|                          ~~~
|  |---3---|    |---3---|
|  E  E    E    E  E    E  Q.       S  S
|-----------------------------------0-14--|
|-----------------------------------------|
|--------------14-18---19-18--------------|
|-14-16---17------------------------------|
|-----------------------------------------|
|-----------------------------------------|


  F#5                 B5       C5
            PM---|                       PM---|                       PM---|
   E        S    S     E        E        S    S     E        E        S    S
|-------------------------------------------------------------------------------|
|-------------------------------------------------------------------------------|
|-------------------------------------------------------------------------------|
|----------------------4--------5-------------------5--------5------------------|
|--4-------------------2--------3--------3----3-----3--------3--------3----3----|
|--2--------2----2--------------------------------------------------------------|
|
|  |--3--|  |---3---|  |--3--|  |--3--|  |---3---|  |--3--|  |--3--|  |---3---|
|  S  S  S  S  S    S  S  S  S  S  S  S  S  S    S  S  S  S  S  S  S  S  S    S
|-17-15-14------------19-17-15----------17-15---14----------19-17-15------------|
|----------17-15---14----------19-17-15------------17-15-14----------19-17---15-|
|-------------------------------------------------------------------------------|
|-------------------------------------------------------------------------------|
|-------------------------------------------------------------------------------|
|-------------------------------------------------------------------------------|


  F#5                 G5       F#5
            PM---|                       PM|     PM|
   E        S    S     E        E        S S E E S S
|------------------------------------------------------|
|------------------------------------------------------|
|------------------------------------------------------|
|------------------------------------------------------|
|--4-------------------5--------4------------4-4-------|
|--2--------2----2-----3--------2--------2-2-2-2-2-2---|
|
|                                        ~~
|  |--3--|  |---3---|  |--3--|  |--3--|
|  S  S  S  S  S    S  S  S  S  S  S  S  H
|-17-15-14------------19-17-15----------21-------------|
|----------17-15---14----------19-17-15----------------|
|------------------------------------------------------|
|------------------------------------------------------|
|------------------------------------------------------|
|------------------------------------------------------|


 Outro
  F#5      B5C5              F#5      G5F#5
    PM-------------------------------------------------
    E  S S E E S S E E S S     E  S S E E S S E E S S
|--------------------------|--------------------------|
|--------------------------|--------------------------|
|--------------------------|--------------------------|
|----------4-5-----5-5-----|--------------------------|
|---4------2-3-3-3-3-3-3-3-|---4------5-4-----4-4-----|
|---2--2-2-----------------|---2--2-2-3-2-2-2-2-2-2-2-|
|
|   >
|  +W                         +W
|-(21)---------------------|-(21)---------------------|
|--------------------------|--------------------------|
|--------------------------|--------------------------|
|--------------------------|--------------------------|
|--------------------------|--------------------------|
|--------------------------|--------------------------|


  F#5      B5C5              F#5      G5F#5
 ---------------------------------------------------|
    E  S S E E S S E E S S     E  S S E E S S E E S S
|--------------------------|----------------------------|
|--------------------------|----------------------------|
|--------------------------|----------------------------|
|----------4-5-----5-5-----|----------------------------|
|---4------2-3-3-3-3-3-3-3-|---4------5-4-----4-4-------|
|---2--2-2-----------------|---2--2-2-3-2-2-2-2-2-2-2---|
|
|  +W                         +W
|-(21)---------------------|-(21)-----------------------|
|--------------------------|----------------------------|
|--------------------------|----------------------------|
|--------------------------|----------------------------|
|--------------------------|----------------------------|
|--------------------------|----------------------------|


  F#5   B5C5              F#5   G5F#5
  PM---------------------------------------------
  E S S E E S S E E S S   E S S E E S S E E S S
|-----------------------|-----------------------|
|-----------------------|-----------------------|
|-----------------------|-----------------------|
|-------4-5-----5-5-----|-----------------------|
|-4-----2-3-3-3-3-3-3-3-|-4-----5-4-----4-4-----|
|-2-2-2-----------------|-2-2-2-3-2-2-2-2-2-2-2-|


  F#5   B5C5              F#5   G5F#5
                                        >
 -------------------------------|
  E S S E E S S E E S S   E S S E H    +E
|-----------------------|-------------------|
|-----------------------|-------------------|
|-----------------------|-------------------|
|-------4-5-----5-5-----|-------------------|
|-4-----2-3-3-3-3-3-3-3-|-4-----5-4----(4)--|
|-2-2-2-----------------|-2-2-2-3-2----(2)--|


  +W           W
|------------|------*|
|------------|------*|
|------------|------*|
|------------|------*|
|-(4)--------|------*|
|-(2)--------|------*|




--------------------------------------------------------------------------------


Duration Legend
---------------
W - whole; H - half; Q - quarter; E - 8th; S - 16th; T - 32nd; X - 64th; a - acciaccatura
+ - note tied to previous; . - note dotted; .. - note double dotted
Uncapitalized letters represent notes that are staccato (1/2 duration)
Irregular groupings are notated above the duration line
Duration letters will always appear directly above the note/fret number it represents the
duration for.  Duration letters with no fret number below them represent rests.  Multi-
bar rests are notated in the form Wxn, where n is the number of bars to rest for.  Low
melody durations appear below the staff

Tablature Legend
----------------
 h   - hammer-on
 p   - pull-off
 b   - bend
 pb  - pre-bend
 r   - bend release (if no number after the r, then release immediately)
 /\  - slide into or out of (from/to "nowhere")
 s   - legato slide
 S   - shift slide
 - natural harmonic
[n]  - artificial harmonic
n(n) - tapped harmonic
 ~   - vibrato
 tr  - trill
 T   - tap
 TP  - trem. picking
 PM  - palm muting
\n/  - tremolo bar dip; n = amount to dip
 \n  - tremolo bar down
 n/  - tremolo bar up
/n\  - tremolo bar inverted dip
 =   - hold bend; also acts as connecting device for hammers/pulls
 <> - volume swell (louder/softer)
 x   - on rhythm slash represents muted slash
 o   - on rhythm slash represents single note slash

Misc Legend
-----------
 |  - bar
||  - double bar
||o - repeat start
o|| - repeat end
*|  - double bar (ending)
 :  - bar (freetime)
 $  - Segno
 &  - Coda
Tempo markers -  = BPM(8/16=s8/s16), where s8 = swing 8ths, s16 = swing 16ths

Tap to rate this tab
# A B C D E F G H I J K L M N O P Q R S T U V W X Y Z