Song name
# A B C D E F G H I J K L M N O P Q R S T U V W X Y Z

Iced Earth - Enter The Realm tab

#----------------------------------PLEASE NOTE---------------------------------#
#This file is the author's own work and represents their interpretation of the #
#song. You may only use this file for private study, scholarship, or research. #
#------------------------------------------------------------------------------#

ENTER THE REALM
As recorded by Iced Earth
(From the 1997 Album DAYS OF PURGATORY)

Transcribed by RoboHondaMonkey
	

Music by Jon Schaffer

Gtr I (Eb Ab Db Gb Bb Eb) - 'Untitled'
Gtr II (Eb Ab Db Gb Bb Eb) - 'Untitled'
Gtr III (Eb Ab Db Gb Bb Eb) - 'Untitled'

 Intro
  Q=160
  Bm                  Bsus2               Bm                  Bsus2
 4/4
  Gtr I
  E E E E  E  E E E   E E E E  E  E E E   E   E E E E E E E   E E E E E E E E
|----------2--------|----------2--------|-----------2-------|---------2-------|
|-------3-----3-----|-------2-----2-----|---------3---3-----|-------2---2-----|
|-----4---------4---|-----4---------4---|-------4-------4---|-----4-------4---|
|---4-------------4-|---4-------------4-|-----4-----------4-|---4-----------4-|
|-2-----------------|-2-----------------|-2-----------------|-2---------------|
|-------------------|-------------------|-------------------|-----------------|
|
| Gtr II
| H       +E  E E E   H       +E  E E E   H..             E   E E E E E E E E
|-------------------|-------------------|-------------------|-----------------|
|-------------------|-------------------|-------------------|-----------------|
|-------------------|-------------------|-------------------|-----------------|
|---------------4-5-|-4-------(4)-4-5-4-|-------------------|-4-5-4-2-4-5-4-2-|
|-2-------(2)-2-----|-------------------|-2---------------2-|-----------------|
|-------------------|-------------------|-------------------|-----------------|


  Bbm                 Bbsus2              Bbm                 Bbsus2
  E E E E  E  E E E   E E E E  E  E E E   E   E E E E E E E   E E E E E E E E
|----------1--------|----------1--------|-----------1-------|---------1--------|
|-------2-----2-----|-------1-----1-----|---------2---2-----|-------1---1------|
|-----3---------3---|-----3---------3---|-------3-------3---|-----3-------3----|
|---3-------------3-|---3-------------3-|-----3-----------3-|---3-----------3--|
|-1-----------------|-1-----------------|-1-----------------|-1----------------|
|-------------------|-------------------|-------------------|------------------|
|
| H       +E  E E E   H       +E  E E E   H..             E   E E E E E E E E
|-------------------|-------------------|-------------------|------------------|
|-------------------|-------------------|-------------------|------------------|
|-------------------|-------------------|-------------------|------------------|
|---------------3-4-|-3-------(3)-3-4-3-|-------------------|-3-4-3-1-3-4-3-1--|
|-1-------(1)-1-----|-------------------|-1---------------1-|------------------|
|-------------------|-------------------|-------------------|------------------|


  Bm                  Bsus2               Bm                  Bsus2
  Gtr I
  E E E E  E  E E E   E E E E  E  E E E   E   E E E E E E E   E E E E E E E E
|----------2--------|----------2--------|-----------2-------|---------2--------|
|-------3-----3-----|-------2-----2-----|---------3---3-----|-------2---2------|
|-----4---------4---|-----4---------4---|-------4-------4---|-----4-------4----|
|---4-------------4-|---4-------------4-|-----4-----------4-|---4-----------4--|
|-2-----------------|-2-----------------|-2-----------------|-2----------------|
|-------------------|-------------------|-------------------|------------------|
|
| Gtr II
| H       +E  E E E   H       +E  E E E   H..             E   E E E E E E E E
|-------------------|-------------------|-------------------|------------------|
|-------------------|-------------------|-------------------|------------------|
|---------------6-7-|-6-------(6)-6-7-6-|-------------------|-6-7-6-4-6-7-6-4--|
|-4-------(4)-4-4-5-|-4-------(4)-4-5-4-|-4---------------4-|-4-5-4-2-4-5-4-2--|
|-2-------(2)-2-----|-------------------|-2---------------2-|------------------|
|-------------------|-------------------|-------------------|------------------|


  Bbm                 Bbsus2
  E E E E  E  E E E   E E E E  E  E E E
|----------1--------|----------1--------|
|-------2-----2-----|-------1-----1-----|
|-----3---------3---|-----3---------3---|
|---3-------------3-|---3-------------3-|
|-1-----------------|-1-----------------|
|-------------------|-------------------|
|
| H       +E  E E E   H       +E  E E E
|-------------------|-------------------|
|-------------------|-------------------|
|---------------5-6-|-5-------(5)-5-6-5-|
|-3-------(3)-3-3-4-|-3-------(3)-3-4-3-|
|-1-------(1)-1-----|-------------------|
|-------------------|-------------------|


  Bbm                 Bbsus2
  E   E E E E E E E   E E E E E E E E
|-----------1-------|---------1--------||
|---------2---2-----|-------1---1------||
|-------3-------3---|-----3-------3----||
|-----3-----------3-|---3-----------3--||
|-1-----------------|-1----------------||
|-------------------|------------------||
|
| H..             E   E E E E E E E E
|-------------------|------------------||
|-------------------|------------------||
|-------------------|-5-6-5-3-5-6-5-3--||
|-3---------------3-|-3-4-3-1-3-4-3-1--||
|-1---------------1-|------------------||
|-------------------|------------------||


   Interlude
    Cadd9             D                 Cadd9             D
    Gtrs I, II
    E E E E E E E E   E E E E E E E E   E E E E E E E E   E E E E E E E E
||----------3-------|-------2-3p2-2h3-|---------3-------|-------2-3p2-2h3---||
||o-------3---3-----|-----3-----------|-------3---3-----|-----3------------o||
||------0-------0---|---2-------------|-----0-------0---|---2---------------||
||----2-----------0-|-0---------------|---2-----------0-|-0-----------------||
||o-3---------------|-----------------|-3---------------|------------------o||
||------------------|-----------------|-----------------|-------------------||


   Outro
    E5     C/E      E5          A5/E
    Gtr I
    E  E E  E  E  E E  E     E  E E E E E E E
||-----------------------|--------------------|
||o----------------------|--------------------|
||-------4--------5------|---4------2-----2---|
||--2--2----2--2----2--2-|------2-2---2-2---2-|
||o----------------------|--------------------|
||-----------------------|--------------------|
|
|   Gtr II
|   Q.      E  E  Q    E    +H        H
||-----------------------|--------------------|
||o-----------12---------|--------------------|
||---------11----11---12-|-(12)---------------|
||-----------------------|--------------------|
||o----------------------|--------------------|
||-----------------------|--------------------|
|
|   Gtr III
|   W                       +W
||-----------------------|--------------------|
||o----------------------|--------------------|
||--9--------------------|--(9)---------------|
||-----------------------|--------------------|
||o----------------------|--------------------|
||-----------------------|--------------------|


  F       F5       B/F         F
   E  E E  E  E  E E  E     E  E E E E E E E   3x
|-----------------------|----------------------||
|-----------------------|---------------------o||
|-------2--------5------|---4------2-----2-----||
|--3--3----3--3----3--3-|------3-3---3-3---3---||
|-----------------------|---------------------o||
|-----------------------|----------------------||
|
|  Q.      E  E  Q    E    +H        H         3x
|-----------------------|----------------------||
|------------13---------|---------------------o||
|---------12----12---14-|-(14)-----------------||
|-----------------------|----------------------||
|-----------------------|---------------------o||
|-----------------------|----------------------||
|
|  W                       +W                  3x
|-----------------------|----------------------||
|-----------------------|---------------------o||
|-10--------------------|-(10)-----------------||
|-----------------------|----------------------||
|-----------------------|---------------------o||
|-----------------------|----------------------||



Duration Legend
---------------
W - whole; H - half; Q - quarter; E - 8th; S - 16th; T - 32nd; X - 64th; a - acciaccatura
+ - note tied to previous; . - note dotted; .. - note double dotted
Uncapitalized letters represent notes that are staccato (1/2 duration)
Irregular groupings are notated above the duration line
Duration letters will always appear directly above the note/fret number it represents the
duration for.  Duration letters with no fret number below them represent rests.  Multi-
bar rests are notated in the form Wxn, where n is the number of bars to rest for.  Low
melody durations appear below the staff

Tablature Legend
----------------
 h   - hammer-on
 p   - pull-off
 b   - bend
 pb  - pre-bend
 r   - bend release (if no number after the r, then release immediately)
 /\  - slide into or out of (from/to "nowhere")
 s   - legato slide
 S   - shift slide
 - natural harmonic
[n]  - artificial harmonic
n(n) - tapped harmonic
 ~   - vibrato
 tr  - trill
 T   - tap
 TP  - trem. picking
 PM  - palm muting
\n/  - tremolo bar dip; n = amount to dip
 \n  - tremolo bar down
 n/  - tremolo bar up
/n\  - tremolo bar inverted dip
 =   - hold bend; also acts as connecting device for hammers/pulls
 <> - volume swell (louder/softer)
 x   - on rhythm slash represents muted slash
 o   - on rhythm slash represents single note slash

Misc Legend
-----------
 |  - bar
||  - double bar
||o - repeat start
o|| - repeat end
*|  - double bar (ending)
 :  - bar (freetime)
 $  - Segno
 &  - Coda
Tempo markers -  = BPM(8/16=s8/s16), where s8 = swing 8ths, s16 = swing 16ths

Tap to rate this tab
# A B C D E F G H I J K L M N O P Q R S T U V W X Y Z