Guitaretab - guitar tabs
Song name
# A B C D E F G H I J K L M N O P Q R S T U V W X Y Z

Iced Earth - Desert Rain tab

#----------------------------------PLEASE NOTE---------------------------------#
#This file is the author's own work and represents their interpretation of the #
#song. You may only use this file for private study, scholarship, or research. #
#------------------------------------------------------------------------------#

DESERT RAIN
As recorded by Iced Earth
(From the 1992 Album NIGHT OF THE STORMRIDER)

Transcribed by Patrick Kane
	

Words and Music by Jon Schaffer

E5
0 2 2 x x x
	
E5VII
x 7 9 9 x x
	
F5
x 8 10 10 x x
	
C5
x 3 5 5 x x
D5
x 5 7 7 x x
	
G5
3 5 5 x x x

Gtr I (Eb Ab Db Gb Bb Eb) - 'Rhythm Guitar'
Gtr II (Eb Ab Db Gb Bb Eb) - 'Lead Guitar'
Gtr III (Eb Ab Db Gb Bb Eb) - 'Harmony Guitar'
Gtr IV (Eb Ab Db Gb Bb Eb) - 'Clean Guitar'

 Intro
  Fast Rock Q=178
  N.C.                                                       E5
 4/4
                                                 Gtr I
  W               W               W               H.         E E
                                                             | |
                                                             / /

  Gtr IV
  Q.   Q.   Q    +E  Q.   Q  Q    Q.   Q.   Q    +E  Q.   Q  Q
|-0----0----0--|-(0)-0----0--0--|-0----0----0--|-(0)-0----0--0----|
|--------------|----------------|--------------|------------------|
|--------------|----------------|--------------|------------------|
|--------------|----------------|--------------|------------------|
|--------------|----------------|--------------|------------------|
|--------------|----------------|--------------|------------------|


    E5
    W               +W               +W              +W
    |                |                |               |
    /                /                /               /

    Q.    Q.   Q    +E  Q.   Q  Q     Q.   Q.   Q    +E  Q.   Q  Q
||--7----10----8--|-(8)-8----8--8--|--7----8----7--|-(7)-7----7--7---|
||o---------------|----------------|---------------|-----------------|
||----------------|----------------|---------------|-----------------|
||----------------|----------------|---------------|-----------------|
||o---------------|----------------|---------------|-----------------|
||----------------|----------------|---------------|-----------------|


  W              +Q     S S H      +E   W              +Q     S S H      +E
  |               |     | | |       |   |               |     | | |       |
  o               /     o o o       /   o               /     o o o       /

  Q.   Q.   Q    +E  Q.       Q  Q      Q.   Q.   Q    +E  Q.       Q  Q
|-5----7----0--|-(0)-0--------0--0----|-5----7----0--|-(0)-0--------0--0-----||
|--------------|----------------------|--------------|----------------------o||
|--------------|----------------------|--------------|-----------------------||
|--------------|----------------------|--------------|-----------------------||
|--------------|----------------------|--------------|----------------------o||
|--------------|----------------------|--------------|-----------------------||


    E5
    W              +W               +W              +W
    |               |                |               |
    /               /                /               /

    Q.   Q.   Q    +E  Q.   Q  Q     Q.   Q.   Q    +E  Q.   Q  Q
||--2----3----5--|-(5)-3----2--3--|--0----0----0--|-(0)-0----0--0----||
||o--------------|----------------|---------------|-----------------o||
||---------------|----------------|---------------|------------------||
||---------------|----------------|---------------|------------------||
||o--------------|----------------|---------------|-----------------o||
||---------------|----------------|---------------|------------------||


  E5
  W              +W               +W
  |               |                |
  /               /                /

  Q.   Q.   Q    +E  Q.   Q  Q     Q.   Q.   Q
|-7----8----7--|-(7)-7----7--7--|--5----7----5--|
|--------------|----------------|---------------|
|--------------|----------------|---------------|
|--------------|----------------|---------------|
|--------------|----------------|---------------|
|--------------|----------------|---------------|


                                                   E5
  +W               W               W               W
   |                                               |
   /                                               /

  +E  Q.   Q  Q    Q.   Q.   Q    +E  Q.   Q  Q    W
|-(5)-5----5--5--|-3----5----3--|-(3)-2----3--2--|-0----||
|----------------|--------------|----------------|------||
|----------------|--------------|----------------|------||
|----------------|--------------|----------------|------||
|----------------|--------------|----------------|------||
|----------------|--------------|----------------|------||


                 Pre-Verse
          Faster Q=204
                  E5    G5     F5                  E5    F5     E5
          Gtr I
          PM|       PM|    PM|                       PM|    PM|
  H.      E E     E E E  E E E  Q     +W           E E E  E E E Q    +W
|-------------||-------------------|-------------|-----------------|--------|
|-------------||o------------------|-------------|-----------------|--------|
|-------------||-------------------|-------------|-----------------|--------|
|-------------||--9-----12-----10--|-(10)--------|-9-----10-----9--|-(9)----|
|-------------||o-7-----10------8--|--(8)--------|-7------8-----7--|-(7)----|
|---------0-0-||----0-0----0-0-----|-------------|---0-0----0-0----|--------|


  D5    E5    E5                D5    E5    E5
    PM|   PM|                     PM|   PM|
  E E E E E E Q    +W           E E E E E E Q    +W
|----------------|------------|----------------|---------||
|----------------|------------|----------------|--------o||
|----------------|------------|----------------|---------||
|-7-----9--------|------------|-7-----9--------|---------||
|-5-----7-----2--|-(2)--------|-5-----7-----2--|-(2)----o||
|---0-0---0-0-0--|-(0)--------|---0-0---0-0-0--|-(0)-----||


    E5    G5     F5       F5     F5 F5 F5 F5
      PM|    PM|    PM--|    PM|
    E E E  E E E  E E   E  E E E  E  E  E  E
||--------------------|----------------------|
||o-------------------|----------------------|
||--------------------|----------------------|
||--9-----12-----10---|---10-----10-10-10-10-|
||o-7-----10------8---|----8------8--8--8--8-|
||----0-0----0-0----0-|-0----0-0-------------|


  E5    F5     E5      E5    E5E5E5E5
    PM|    PM|   PM--|   PM|
  E E E  E E E E E   E E E E E E E E
|------------------|------------------|
|------------------|------------------|
|------------------|------------------|
|-9-----10-----9---|---9-----9-9-9-9--|
|-7------8-----7---|---7-----7-7-7-7--|
|---0-0----0-0---0-|-0---0-0----------|


  D5    E5    E5
    PM|   PM|      PM----------------|
  E E E E E E Q    E E S S E S S E S S E
|----------------|-----------------------|
|----------------|-----------------------|
|----------------|-----------------------|
|-7-----9--------|-----------------------|
|-5-----7-----2--|-----------------------|
|---0-0---0-0-0--|-0-0-0-0-0-0-0-0-0-0-0-|


  D5    E5    E5
    PM|   PM|      PM----------------|
  E E E E E E Q    E E S S E S S E S S E
|----------------|------------------------||
|----------------|-----------------------o||
|----------------|------------------------||
|-7-----9--------|------------------------||
|-5-----7-----2--|-----------------------o||
|---0-0---0-0-0--|-0-0-0-0-0-0-0-0-0-0-0--||


    B5    C5    D5      C5    B5  C5    B5    E5
      PM|   PM|   PM--|   PM|   PM  PM    PM|   PM----------------------|
    E E E E E E E E   E E E E E E E E   E E E E E E E E   E E E E E E E E
||------------------|-----------------|-----------------|-------------------||
||o-----------------|-----------------|-----------------|------------------o||
||------------------|-----------------|-----------------|-------------------||
||--4-----5-----7---|---5-----4---5---|-4---------------|-------------------||
||o-2-----3-----5---|---3-----2---3---|-2-----2---------|------------------o||
||----0-0---0-0---0-|-0---0-0---0---0-|---0-0-0-0-0-0-0-|-0-0-0-0-0-0-0-0---||


   Verses I, II
    $
    E5F5 E5         G5        G5 G5  F5  F5
            PM----|
    E  E Q  E S S E  E    +E   E  Q   Q   Q
||---------------------|---------------------|
||o--------------------|---------------------|
||---------------------|---------------------|
||---------------------|---------------------|
||o-2--3-2-----------5-|--(5)--5--5---3---3--|
||--0--1-0--0-0-0-0--3-|--(3)--3--3---1---1--|
|
|   Gtr II
|           PM----|
|   E  E Q  E S S E  E    +E   E  Q   Q   Q
||---------------------|---------------------|
||o--------------------|---------------------|
||---------------------|---------------------|
||--9-10-9----------12-|-(12)-12-12--10--10--|
||o-7--8-7--7-7-7-7-10-|-(10)-10-10---8---8--|
||---------------------|---------------------|


  E5F5 E5
          PM------|
  E  E Q  E S S E E   S S E S S E  S  S  E S S E
|-------------------|------------------------------|
|-------------------|------------------------------|
|-------------------|------------------------------|
|-------------------|-9-9-9-7-7-7-10-10-10---------|
|-2--3-2------------|----------------------8-8-8---|
|-0--1-0--0-0-0-0-0-|------------------------------|
|
|         PM------|
| E  E Q  E S S E E   S S E S S E  S  S  E S S E
|-------------------|------------------------------|
|-------------------|------------------------------|
|-------------------|------------------------------|
|-9-10-9------------|-9-9-9-7-7-7-10-10-10---------|
|-7--8-7--7-7-7-7-7-|----------------------8-8-8---|
|-------------------|------------------------------|


  E5F5 E5         G5        G5 G5  F5  F5
          PM----|
  E  E Q  E S S E  E    +E   E  Q   Q   Q
|--------------------|---------------------|
|--------------------|---------------------|
|--------------------|---------------------|
|--------------------|---------------------|
|-2--3-2-----------5-|--(5)--5--5---3---3--|
|-0--1-0--0-0-0-0--3-|--(3)--3--3---1---1--|
|
|         PM----|
| E  E Q  E S S E  E    +E   E  Q   Q   Q
|--------------------|---------------------|
|--------------------|---------------------|
|--------------------|---------------------|
|-9-10-9----------12-|-(12)-12-12--10--10--|
|-7--8-7--7-7-7-7-10-|-(10)-10-10---8---8--|
|--------------------|---------------------|


  E5F5 E5
          PM------|
  E  E Q  E S S E E   S S E S S E  S  S  E S S E
|-------------------|-----------------------------||
|-------------------|----------------------------o||
|-------------------|-----------------------------||
|-------------------|-9-9-9-7-7-7-----------------||
|-2--3-2------------|-------------10-10-10-8-8-8-o||
|-0--1-0--0-0-0-0-0-|-----------------------------||
|
|         PM------|
| E  E Q  E S S E E   S S E S S E  S  S  E S S E
|-------------------|-----------------------------||
|-------------------|----------------------------o||
|-------------------|-----------------------------||
|-9-10-9------------|-9-9-9-7-7-7-----------------||
|-7--8-7--7-7-7-7-7-|-------------10-10-10-8-8-8-o||
|-------------------|-----------------------------||


                                                             D.S.
  PM|                                PM|
  E E E E E E E  E   E  E H    Q     E E E E E E E  E   E E H    Q
|------------------|---------------|------------------|--------------|
|------------------|---------------|------------------|--------------|
|------------------|-8-------------|------------------|--------------|
|-------9-9-7-9-10-|---10-9----9\--|-------9-9-7-9-10-|-9-7----------|
|------------------|---------------|------------------|-----8----8\--|
|-0-0--------------|---------------|-0-0--------------|--------------|


 Bridge
  N.C.
  Gtr II
  PM|                                 PM|
  E E E E E  E E  E   E  E H    Q     E E E E E  E E  E   E E H     Q
|-------------------|---------------|-------------------|---------------||
|-------------------|---------------|-------------------|---------------||
|-------------------|-8-------------|-------------------|---------------||
|-------9-9--7-9-10-|---10-9----9\--|-------9-9--7-9-10-|-9-7-----------||
|-------------------|---------------|-------------------|-----8-----8\--||
|-0-0---------------|---------------|-0-0---------------|---------------||
|
| Gtr III
| PM|
| E E E E E  E E  E   E  E H    Q     E E E E E  E E  E   E E H.
|-------------------|---------------|-------------------|-----7---------||
|-------------------|-8-------------|-------------------|-7-8-----------||
|-------9-9----8--9-|----9-8----8\--|-------9-9----8--9-|---------------||
|-----------10------|---------------|-----------10------|---------------||
|-------------------|---------------|-------------------|---------------||
|-0-0---------------|---------------|-0-0---------------|---------------||


   Pre-Chorus
    Moderate Rock Q=148
    N.C.
    Gtr I
    PM--------------------------------------------------------------|
    S S S S S S S S S S S S S S S S   S S S S S S S S S S S S S S S S
||----------------------------------|-----------------------------------||
||o---------------------------------|----------------------------------o||
||----------------------------------|-----------------------------------||
||----------------------------------|-----------------------------------||
||o-7-7-7-7-7-7-7-7-7-7-7-7-7-7-7-7-|-7-7-7-7-7-7-7-7-7-7-7-7-7-7-7-7--o||
||----------------------------------|-----------------------------------||


  S S S S S S S S S S S S S S S S    S  S  S  S  S  S  S  S S S S S S S S S
|---------------------------------|-----------------------------------------|
|---------------------------------|-----------------------------------------|
|---------------------------------|-----------------------------------------|
|---------------------------------|-----------------------------------------|
|-5-5-5-5-5-5-5-5-5-5-5-5-8-8-8-8-|-10-10-10-10-10-10-10-10-8-8-8-8-8-8-8-8-|
|---------------------------------|-----------------------------------------|


  PM--------------------------------------------------------------|
  S S S S S S S S S S S S S S S S   S S S S S S S S S S S S S S S S
|---------------------------------|---------------------------------|
|---------------------------------|---------------------------------|
|---------------------------------|---------------------------------|
|---------------------------------|---------------------------------|
|-7-7-7-7-7-7-7-7-7-7-7-7-7-7-7-7-|-7-7-7-7-7-7-7-7-7-7-7-7-7-7-7-7-|
|---------------------------------|---------------------------------|


    $$
    N.C.
    Gtr I
     PM----------------------------------------
     S S S S  S S  S    S    S  S S S S S S S
||--------------------------------------------|
||o-------------------------------------------|
||--------------------------------------------|
||--------------------------------------------|
||o--7-7-7-7--7-7--7----7----7--7-7-7-7-7-7-7-|
||--------------------------------------------|
|
|   Gtr II
|                  |---3---|
|    Q        E    S  S    S Q.           E
||--------------------------------------------|
||o-------------------------------------------|
||--13-------12---10h12p==10-9----------------|
||----------------------------------------7---|
||o-------------------------------------------|
||--------------------------------------------|


 -------------------------------|
  S S S S S S S S S S S S S S S S
|-----------------------------------||
|----------------------------------o||
|-----------------------------------||
|-----------------------------------||
|-7-7-7-7-7-7-7-7-7-7-7-7-7-7-7-7--o||
|-----------------------------------||
|
| Q       S S E   H
|-----------------------------------||
|----------------------------------o||
|-----------------------------------||
|-9-------7h9-7---6-----------------||
|----------------------------------o||
|-----------------------------------||


  S  S S S S S S S S S S S S S S S
|----------------------------------|
|----------------------------------|
|----------------------------------|
|----------------------------------|
|-5--5-5-5-5-5-5-5-5-5-5-5-8-8-8-8-|
|----------------------------------|
|
| H.                       Q
|----------------------------------|
|----------------------------------|
|----------------------------------|
|-7------------------------9-------|
|----------------------------------|
|----------------------------------|


    S  S  S  S  S  S  S  S  S S S S S S S S
|---------------------------------------------|
|---------------------------------------------|
|---------------------------------------------|
|---------------------------------------------|
|--10-10-10-10-10-10-10-10--8-8-8-8-8-8-8-8---|
|---------------------------------------------|
|
|   H                       H
|---------------------------------------------|
|---------------------------------------------|
|-/12----------------------10-----------------|
|---------------------------------------------|
|---------------------------------------------|
|---------------------------------------------|


                                                                  D.S.S.
  PM--------------------------------------------------------------------|
  S  S S  S S S S S S S S S S S S S   S  S S  S S S S S S S S S S S  S  S
|-----------------------------------|-------------------------------------|
|-----------------------------------|-------------------------------------|
|-----------------------------------|-------------------------------------|
|-----------------------------------|-------------------------------------|
|-7--7-7--7-7-7-7-7-7-7-7-7-7-7-7-7-|-7--7-7--7-7-7-7-7-7-7-7-7-7-7--7--7-|
|-----------------------------------|-------------------------------------|
|
| S  S H.                       E     S  S H.                       +E
|-----------------------------------|-------------------------------------|
|-----------------------------------|-------------------------------------|
|-9h10-9------------------------9---|-9h10-9------------------------(9)---|
|-----------------------------------|-------------------------------------|
|-----------------------------------|-------------------------------------|
|-----------------------------------|-------------------------------------|


  N.C.
  S  S S S S S S S S S S S S S S S     S  S  S  S  S  S  S  S  S S S S S S S S
|----------------------------------|-------------------------------------------|
|----------------------------------|-------------------------------------------|
|----------------------------------|-------------------------------------------|
|----------------------------------|-------------------------------------------|
|-5--5-5-5-5-5-5-5-5-5-5-5-8-8-8-8-|--10-10-10-10-10-10-10-10--8-8-8-8-8-8-8-8-|
|----------------------------------|-------------------------------------------|
|
| H.                       Q           H                       H
|----------------------------------|-------------------------------------------|
|----------------------------------|-------------------------------------------|
|----------------------------------|-/12----------------------10---------------|
|-7------------------------9-------|-------------------------------------------|
|----------------------------------|-------------------------------------------|
|----------------------------------|-------------------------------------------|


   PM--------------------------------------
   S    S  S  S S S S S S S S S S S  S  S
|-----------------------------------------|
|-----------------------------------------|
|-----------------------------------------|
|-----------------------------------------|
|--7----7--7--7-7-7-7-7-7-7-7-7-7-7--7--7-|
|-----------------------------------------|
|
|  S    S  H.                        E
|-----------------------------------------|
|-----------------------------------------|
|-[9]h[10]-9------------------------[9]---|
|-----------------------------------------|
|-----------------------------------------|
|-----------------------------------------|


 -----------------------------------------|
   S    S   S  S S S S S S S  S   S S S S S
|-------------------------------------------||
|-------------------------------------------||
|-------------------------------------------||
|-------------------------------------------||
|--7----7---7--7-7-7-7-7-7-7--7---7-7-7-7-7-||
|-------------------------------------------||
|
|  S    S   H                +Q.
|-------------------------------------------||
|-------------------------------------------||
|-[9]h[10]-[9]---------------(9)\-----------||
|-------------------------------------------||
|-------------------------------------------||
|-------------------------------------------||


   Chorus
    E5         E5           E5
       PM----|    PM----|      PM----------------|
         |-3-|      |-3-|        |-3-| |-3-| |-3-|
    Q  E S S S Q  E S S S   Q  E S S S E E E E E E
||------------------------|-------------------------|
||o-----------------------|-------------------------|
||------------------------|-------------------------|
||------------------------|-------------------------|
||o-2----------2----------|-2----------------0------|
||--0--0-0-0-0-0--0-0-0-0-|-0--0-0-0-0-0-1-3---3-1--|
|
|      PM----|    PM----|      PM----------------|
|        |-3-|      |-3-|        |-3-| |-3-| |-3-|
|   Q  E S S S Q  E S S S   Q  E S S S E E E E E E
||------------------------|-------------------------|
||o-----------------------|-------------------------|
||------------------------|----------------4-6-4----|
||--6----------6----------|-6----------6-7-------7--|
||o-----------------------|-------------------------|
||-----0-0-0-0----0-0-0-0-|----0-0-0-0--------------|


  E5         E5           E5
     PM----|    PM----|      PM----------------|
       |-3-|      |-3-|        |-3-| |-3-| |-3-|
  Q  E S S S Q  E S S S   Q  E S S S E E E E E E
|-----------------------|------------------------|
|-----------------------|------------------------|
|-----------------------|------------------------|
|-----------------------|------------------------|
|-2----------2----------|-2----------------0-----|
|-0--0-0-0-0-0--0-0-0-0-|-0--0-0-0-0-0-1-3---3-1-|
|
|    PM----|    PM----|      PM----------------|
|      |-3-|      |-3-|        |-3-| |-3-| |-3-|
| Q  E S S S Q  E S S S   Q  E S S S E E E E E E
|-----------------------|------------------------|
|-----------------------|------------------------|
|-----------------------|----------------4-6-4---|
|-6----------6----------|-6----------6-7-------7-|
|-----------------------|------------------------|
|----0-0-0-0----0-0-0-0-|----0-0-0-0-------------|


  D5         D5           D5
     PM----|    PM----|                    PM--|
       |-3-|      |-3-|        |-3-| |-3-| |-3-|
  Q  E S S S Q  E S S S   Q  E S S S E E E E E E
|-----------------------|------------------------|
|-----------------------|------------------------|
|-----------------------|------------------------|
|-7----------7----------|-7----------5-8-7-------|
|-5--5-5-5-5-5--5-5-5-5-|-5--5-5-5-5-------8-7-6-|
|-----------------------|------------------------|
|
| H          H            H          H
|-----------------------|------------------------|
|-----------------------|------------------------|
|-----------------------|-4----------7-----------|
|-6----------7----------|------------------------|
|-----------------------|------------------------|
|-----------------------|------------------------|


  E5         E5           E5           C5    D5
     PM----|    PM----|        PM----|
       |-3-|      |-3-|          |-3-|
  Q  E S S S Q  E S S S    Q   E S S S Q     Q
|-----------------------|---------------------------||
|-----------------------|--------------------------o||
|-----------------------|---------------------------||
|-9---------------------|--------------5-----7------||
|-7----------2----------|--2-----------3-----5-----o||
|----0-0-0-0-0--0-0-0-0-|--0---0-0-0-0--------------||
|
|                                      |-3-| |-3-|
| W                       +H           E E E E E E
|-----------------------|---------------------------||
|-----------------------|--------------------------o||
|-9---------------------|-(9)--------------4-6-4----||
|-----------------------|--------------6-7-------7--||
|-----------------------|--------------------------o||
|-----------------------|---------------------------||


    Faster Q=212
    E5E5    F5/C  G5/D    G#5/EbG#5/Eb E5E5    F5/C  G5/D    G#5/Eb  G5/D
    PM----|   PM|     PM|   PM|        PM----|   PM|     PM|   PM|
    E E E E E E E E   E E E E E E Q    E E E E E E E E   E E E E E E Q
||------------------|----------------|-----------------|------------------||
||o-----------------|----------------|-----------------|-----------------o||
||------------------|----------------|-----------------|------------------||
||----------3-----5-|-----6-----6-5--|---------3-----5-|-----6-----6-5----||
||o-2-2-0-0-3-0-0-5-|-0-0-6-0-0-6-5--|-2-2-0-0-3-0-0-5-|-0-0-6-0-0-6-5---o||
||--0-0-------------|----------------|-0-0-------------|------------------||


   Solo
                                      1.,3.
    D5            D5           D5             D5             D5    EbD5
    Gtr I
        PM----|       PM-----|    PM--|          PM-----|
        |--3--|       |--3---|                   |--3---|
    E   E E   E    E  E E    E E  E     E      E E E    E     E  E E  E
||----------------------------------|--------------------------------------||
||o---------------------------------|-------------------------------------o||
||----------------------------------|--------------------------------------||
||--7--------------7-----------7----|----------7--------------7----8s=7----||
||o-5---5-5---5----5--5-5----5-5--5-|---5------5-5-5----5-----5--0-6s=5---o||
||----------------------------------|--------------------------------------||
|
|   Gtr II
|   S S E   S   S  E  E    E   E  E     S   S  Q      S    S  Q.     +E
||-------------------10-------------|--------------------------------------||
||o-----8---7---9-10------10---8----|-------------------------------------o||
||--7-9--------------------------10-|-[10]h11h12p====11p==10-[7]-----(7)\--||
||----------------------------------|--------------------------------------||
||o---------------------------------|-------------------------------------o||
||----------------------------------|--------------------------------------||


  2.,4.
                         D5    EbEb5
    PM       PM-----|
             |--3---|
    E      E E E    E     E  E E  E
|-------------------------------------|
|-------------------------------------|
|-------------------------------------|
|----------7--------------7----8--8---|
|---5------5-5-5----5-----5--0-6--6---|
|-------------------------------------|
|
|   S   S  Q      S    S  Q.     +E
|-------------------------------------|
|------------------------[8]-----(8)\-|
|-[10]h11h12p====11p==10--------------|
|-------------------------------------|
|-------------------------------------|
|-------------------------------------|


    D5            D5           D5
        PM----|       PM-----|    PM-
        |--3--|       |--3---|
    E   E E   E    E  E E    E E  E
||----------------------------------|
||o---------------------------------|
||----------------------------------|
||--7--------------7-----------7----|
||o-5---5-5---5----5--5-5----5-5--5-|
||----------------------------------|
|
|   S S E   S   S  E  E    E   E  E
||-------------------10-------------|
||o-----8---7---9-10------10---8----|
||--7-9--------------------------10-|
||----------------------------------|
||o---------------------------------|
||----------------------------------|

[ Tab from: http://www.guitaretab.com/i/iced-earth/39691.html ]
  1.                                      2.
          D5             D5    EbD5                            D5    EbEb5
 -|          PM-----|                      PM      PM-----|
             |--3---|                              |--3---|
    E      E E E    E     E  E E  E        E     E E E    E     E  E E  E
|--------------------------------------||-----------------------------------|
|-------------------------------------o||-----------------------------------|
|--------------------------------------||-----------------------------------|
|----------7--------------7----8s=7----||--------7--------------7----8--8---|
|---5------5-5-5----5-----5--0-6s=5---o||--5-----5-5-5----5-----5--0-6--6---|
|--------------------------------------||-----------------------------------|
|
|   S   S  Q      S    S  Q.     +E        S  S  Q      S    S  Q.     +E
|--------------------------------------||-----------------------------------|
|-------------------------------------o||----------------------[8]-----(8)\-|
|-[10]h11h12p====11p==10-[7]-----(7)\--||-10h11h12p====11p==10--------------|
|--------------------------------------||-----------------------------------|
|-------------------------------------o||-----------------------------------|
|--------------------------------------||-----------------------------------|


  E5         E5         E5       E5         E5   F5 E5
     PM----|    PM----|    PM--|    PM----|
     |--3--|    |--3--|             |--3--|
   E E E   E  E E E   E  E E   E  E E E   E  E E  E E
|----------------------------|------------------------|
|----------------------------|------------------------|
|----------------------------|------------------------|
|--9----------9----------9---|----9----------9---10s9-|
|--7-7-7---7--7-7-7---7--7-7-|-7--7-7-7---7--7-7--8s7-|
|----------------------------|------------------------|
|
|  E E   E    E E   E    E E   E  E E   E    E E  E E
|----------------------------|------------------------|
|-24-0---0---22-0---0---24-0-|-0-20-0---0---22-0-19-0-|
|----------------------------|------------------------|
|----------------------------|------------------------|
|----------------------------|------------------------|
|----------------------------|------------------------|


  E5         E5         E5       E5         E5   F5 F5
     PM----|    PM----|    PM--|    PM----|    PM
     |--3--|    |--3--|             |--3--|
   E E E   E  E E E   E  E E   E  E E E   E  E E  E  E
|----------------------------|-------------------------|
|----------------------------|-------------------------|
|----------------------------|-------------------------|
|--9----------9----------9---|----9----------9---10-10-|
|--7-7-7---7--7-7-7---7--7-7-|-7--7-7-7---7--7-0--8--8-|
|----------------------------|-------------------------|
|
|  E E   E    E E   E    E E   E  E E   E    E E  E  E
|----------------------------|-------------------------|
|-21-0---0---19-0---0---10-0-|-0-12-0---0---14-0-10--0-|
|----------------------------|-------------------------|
|----------------------------|-------------------------|
|----------------------------|-------------------------|
|----------------------------|-------------------------|


  E5         E5         E5                  E5   F5 E5
     PM----|    PM----|    PM--|    PM----|
     |--3--|    |--3--|             |--3--|
   E E E   E  E E E   E  E E   E  E E E   E  E E  E E
|----------------------------|------------------------|
|----------------------------|------------------------|
|----------------------------|------------------------|
|--9----------9----------9---|----9----------9---10s9-|
|--7-7-7---7--7-7-7---7--7-7-|-7--7-7-7---7--7-7--8s7-|
|----------------------------|------------------------|
|
|  E E   E    E E   E    E E   E  E E   E    E E  E E
|----------------------------|------------------------|
|-12-0---0---14-0---0---15-0-|-0-12-0---0---10-0-12-0-|
|----------------------------|------------------------|
|----------------------------|------------------------|
|----------------------------|------------------------|
|----------------------------|------------------------|


  E5         E5         E5       E5         E5    F5 F5
     PM----|    PM----|    PM--|    PM----|     PM
     |--3--|    |--3--|             |--3--|
   E E E   E  E E E   E  E E   E  E E E   E  E  E  E  E
|----------------------------|--------------------------|
|----------------------------|--------------------------|
|----------------------------|--------------------------|
|--9----------9----------9---|----9----------9----10-10-|
|--7-7-7---7--7-7-7---7--7-7-|-7--7-7-7---7--7--0--8--8-|
|----------------------------|--------------------------|
|
|  E E   E    E E   E    E E   E  E E   E    H
|----------------------------|--------------------------|
|-12-0---0---15-0---0---10-0-|-0-14-0---0---17\---------|
|----------------------------|--------------------------|
|----------------------------|--------------------------|
|----------------------------|--------------------------|
|----------------------------|--------------------------|


  E5VII        E5VII        E5VII      E5VII        E5VII F5 E5VIIE5VII
  Gtr I
      |--3---|     |--3---|                |--3---|
   E  E E    E  E  E E    E  E  E    E  E  E E    E  E  E  E  E
   |  | |    |  |  | |    |  |  |    |  |  | |    |  |  |  |  |
   /  o /    /  /  o /    /  /  o    /  /  / /    /  /  o  /  /

  Gtr II
   E  E    E    E  E    E    E  E    E  E  E    E    E  E  E  E
|----17---15---17------17---15-17-|----19-17---19------19-17-19-|
|-15--------------15--------------|-17--------------17----------|
|---------------------------------|-----------------------------|
|---------------------------------|-----------------------------|
|---------------------------------|-----------------------------|
|---------------------------------|-----------------------------|
|
| Gtr III
|  E  E    E    E  E    E    E  E    E  E  E    E    E  E  E  E
|---------------------------------|-----------------------------|
|---------------------------------|----20-19---20------20-19-20-|
|----19---17---19------19---17-19-|-18--------------18----------|
|-17--------------17--------------|-----------------------------|
|---------------------------------|-----------------------------|
|---------------------------------|-----------------------------|


               E5VII        E5VII
      |--3---|     |--3---|
   E  E E    E  E  E E    E  E  E
   |  | |    |  |  | |    |  |  |
   /  o /    /  /  o /    /  /  o

   E  E    E    E  E    E    E  E
|----17---15---17------17---15-17--|
|-15--------------15---------------|
|----------------------------------|
|----------------------------------|
|----------------------------------|
|----------------------------------|
|
|  E  E    E    E  E    E    E  E
|----------------------------------|
|----------------------------------|
|----19---17---19------19---17-19--|
|-17--------------17---------------|
|----------------------------------|
|----------------------------------|


     E5VII        E5VII F5 F5   E5VII        E5VII        E5VII
         |--3---|                   |--3---|     |--3---|
   E  E  E E    E  E  E  E  E    E  E E    E  E  E E    E  E  E
   |  |  | |    |  |  |  |  |    |  | |    |  |  | |    |  |  |
   /  /  o /    /  /  o  /  /    /  o /    /  /  o /    /  /  o

   E  E  E    E    E  E  E  E    E  E    E    E  E    E    E  E
|----20-19---20------20-19-20-|----22---20---22------20---19-20-|
|-17--------------17----------|-20--------------18--------------|
|-----------------------------|---------------------------------|
|-----------------------------|---------------------------------|
|-----------------------------|---------------------------------|
|-----------------------------|---------------------------------|
|
|  E  E  E    E    E  E  E  E    E  E    E    E  E    E    E  E
|-----------------------------|---------------------------------|
|----22-20---22------22-20-22-|----24---22---24------22---20-22-|
|-19--------------19----------|-21--------------19--------------|
|-----------------------------|---------------------------------|
|-----------------------------|---------------------------------|
|-----------------------------|---------------------------------|


     E5VII        E5VII E5VF5
         |--3---|
   E  E  E E    E  E  E  E  E
   |  |  | |    |  |  |  |  |
   /  /  o /    /  /  o  /  /

   E  E  E    E    E  E  E  E
|----20-19---20------19-17-19--|
|-18--------------17-----------|
|------------------------------|
|------------------------------|
|------------------------------|
|------------------------------|
|
|  E  E  E    E    E  E  E  E
|------------------------------|
|----22-20---22------20-19-20--|
|-19--------------18-----------|
|------------------------------|
|------------------------------|
|------------------------------|


  E5VII        E5VII        E5VII      E5VII        E5VII
      |--3---|     |--3---|                |--3---|
   E  E E    E  E  E E    E  E  E    E  E  E E    E  H
   |  | |    |  |  | |    |  |  |    |  |  | |    |  |
   /  o /    /  /  o /    /  /  o    /  /  o /    /  /

   E  E    E    E  E    E    E  E    E  E  E    E    H
|----17---15---17------19---17-19-|----20-19---20---24\----|
|-15--------------17--------------|-18---------------------|
|---------------------------------|------------------------|
|---------------------------------|------------------------|
|---------------------------------|------------------------|
|---------------------------------|------------------------|
|
|  E  E    E    E  E    E    E  E    E  E  E    E    H
|---------------------------------|------------------------|
|----19---17---19------20---19-20-|----22-20---22---22\----|
|-17--------------18--------------|-19---------------------|
|---------------------------------|------------------------|
|---------------------------------|------------------------|
|---------------------------------|------------------------|


 Bridge
  N.C.
  Gtr I
    |-3--|                                |-3--|
  E E E  E E E  E E E    E E E E H      E E E  E E E  E E E    E E E  E H
|---------------------|---------------|---------------------|----------------|
|---------------------|---------------|---------------------|----------------|
|---------------------|---------------|---------------------|----------------|
|------------7--------|---------------|------------7--------|-10-9-7---------|
|-7-7-9-10-9---10-9-7-|-10-9-7-6-7----|-7-7-9-10-9---10-9-7-|--------10-9----|
|---------------------|---------------|---------------------|----------------|


    |-3--|                                |-3--|
  E E E  E E E  E E E    E E E E H      E E E  E E E  E E E    E E E  E H
|---------------------|---------------|---------------------|----------------|
|---------------------|---------------|---------------------|----------------|
|---------------------|---------------|---------------------|----------------|
|------------7--------|---------------|------------7--------|-10-9-7---------|
|-7-7-9-10-9---10-9-7-|-10-9-7-6-7----|-7-7-9-10-9---10-9-7-|--------10-9----|
|---------------------|---------------|---------------------|----------------|
|
| Gtr II
|   |-3--|                                |-3--|
| E E E  E E E  E E E    E E E E H      E E E  E E E  E E E    E E E  E H
|---------------------|---------------|---------------------|----------------|
|---------------------|---------------|---------------------|----------------|
|------------5--------|---------------|------------5--------|--9-7-5---------|
|-5-5-7--9-7----9-7-5-|--9-7-5-4-5----|-5-5-7--9-7----9-7-5-|---------9-7----|
|---------------------|---------------|---------------------|----------------|
|---------------------|---------------|---------------------|----------------|


    Moderate Rock Q=142
    E5
    Gtr I
    W              +W               +W
    |               |                |
    /               /                /

    Gtr II
    H    E E E E   +H     E E E E   +H     E E E E
||---------------|----------------|----------------|
||o--------------|----------------|----------------|
||-------9-7-6-7-|-(7)----7-6-4-6-|-(6)----6-4-2-4-|
||---------------|----------------|----------------|
||o--------------|----------------|----------------|
||--0------------|----------------|----------------|


  1.                  2.
              G5                  G5
  +H     +E E E E     +H     +E E Q
   |      | | | |      |      | | |
   /      / / / /      /      / / /

  +W                  +W
|------------------||------------------|
|-----------------o||------------------|
|-(4)--------------||-(4)--------------|
|------------------||------------------|
|-----------------o||------------------|
|------------------||------------------|


    E5
    W               +W               +W
    |                |                |
    /                /                /

    H     E E E E   +H     E E E E   +H     E E E E
||----------------|----------------|----------------|
||o---------------|----------------|----------------|
||--------9-7-6-7-|-(7)----7-6-4-6-|-(6)----6-4-2-4-|
||----------------|----------------|----------------|
||o---------------|----------------|----------------|
||--0-------------|----------------|----------------|
|
|   Gtr III
|   H     E E E E   +H     E E E E   +H     E E E E
||----------------|----------------|----------------|
||o------10-8-7-8-|-(8)----8-7-5-7-|-(7)----7-5-3-5-|
||----------------|----------------|----------------|
||----------------|----------------|----------------|
||o---------------|----------------|----------------|
||--0-------------|----------------|----------------|


  1.                  2.
              G5                  G5
  +H     +E E E E      H     +E E Q
   |      | | | |      |      | | |
   /      / / / /      /      / / /

  +W                  +W
|------------------||------------------|
|-----------------o||------------------|
|-(4)--------------||-(4)--------------|
|------------------||------------------|
|-----------------o||------------------|
|------------------||------------------|
|
| +W                  +W
|------------------||------------------|
|-(5)-------------o||-(5)--------------|
|------------------||------------------|
|------------------||------------------|
|-----------------o||------------------|
|------------------||------------------|


   Interlude
    E5       Em  D        D
    Gtr IV
       PM--|
    Q  E E E E E E   +Q   E S S E E E E
||-----------------|--------------------|
||o----------------|--------------------|
||-----------------|--------------------|
||-----------5---4-|-(4)--4-4-4-4-5-4---|
||o-2--------7---5-|-(5)--5-----------5-|
||--0--0-0-0---0---|--------------------|


  E5       Em  D        D
     PM--|
  Q  E E E E E E   +Q   E S S E E Q    4x
|----------------|---------------------||
|----------------|--------------------o||
|----------------|---------------------||
|----------5---4-|-(4)--4-4-4-4-5-7----||
|-2--------7---5-|-(5)--5-------------o||
|-0--0-0-0---0---|---------------------||


                Em  EmD        D
    Gtr I
    PM--------|   PM
    E S S E S S E E E E   +Q   E S S E E E E
||----------------------|--------------------|
||o---------------------|--------------------|
||----------------------|--------------------|
||--------------5---5-4-|-(4)--4-4-4-4-5-4---|
||o-------------7---7-5-|-(5)--5-----------5-|
||--0-0-0-0-0-0---0-----|--------------------|


              Em  EmD        D
  PM--------|   PM
  E S S E S S E E E E   +Q   E S S E E Q
|---------------------|----------------------||
|---------------------|---------------------o||
|---------------------|----------------------||
|-------------5---5-4-|-(4)--4-4-4-4-5-7-----||
|-------------7---7-5-|-(5)--5--------------o||
|-0-0-0-0-0-0---0-----|----------------------||


                     Em  Em D            D
   PM--------------|   PM
   E  S S  E     S S E E  E  E    +Q      E  S S E E  E E
|------------------------------|--------------------------|
|------------------------------|--------------------------|
|------------------------------|--------------------------|
|--------------------5----5--4-|--(4)-----4--4-4-4-5--4---|
|--------------------7----7--5-|--(5)-----5-------------5-|
|--0--0-0--0-----0-0---0-------|--------------------------|
|
| Gtr II
|  E  E    E  a  Q     E  E  E    +E   E  E  Q     E  Q
|------------------------------|--------------------------|
|---------10-10S12-------12----|---------10---------------|
|-11-12----------------9----11-|-(11)-12----11-----9------|
|------------------------------|---------------------12---|
|------------------------------|--------------------------|
|------------------------------|--------------------------|


                     Em  Em D            D
   PM--------------|   PM
   E  S S  E     S S E E  E  E    +Q      E  S S E  E Q
|------------------------------|--------------------------|
|------------------------------|--------------------------|
|------------------------------|--------------------------|
|--------------------5----5--4-|--(4)-----4--4-4-4--5-7---|
|--------------------7----7--5-|--(5)-----5---------------|
|--0--0-0--0-----0-0---0-------|--------------------------|
|
|  E  E    E  a  Q     E  E  E    +E   E  E  Q      E Q
|------------------------------|--------------------------|
|---------10-10S12-------12----|---------10---------------|
|-11-12----------------9----11-|-(11)-12----11------------|
|------------------------------|-------------------12-9---|
|------------------------------|--------------------------|
|------------------------------|--------------------------|


                     Em  Em D            D
   PM--------------|   PM
   E  S S  E     S S E E  E  E    +Q      E  S S E E  E E
|------------------------------|--------------------------|
|------------------------------|--------------------------|
|------------------------------|--------------------------|
|--------------------5----5--4-|--(4)-----4--4-4-4-5--4---|
|--------------------7----7--5-|--(5)-----5-------------5-|
|--0--0-0--0-----0-0---0-------|--------------------------|
|
|  E  E    E  a  Q     E  E  E    +E   E  E  Q     E  Q
|------------------------------|--------------------------|
|---------10-10S12-------12----|---------10---------------|
|-11-12----------------9----11-|-(11)-12----11-----9------|
|------------------------------|---------------------12---|
|------------------------------|--------------------------|
|------------------------------|--------------------------|


                     Em  Em D         D
   PM--------------|   PM
   E  S S  E     S S E E  E  E   +Q    E  S S  E  E  Q
|------------------------------|---------------------------|
|------------------------------|---------------------------|
|------------------------------|---------------------------|
|--------------------5----5--4-|-(4)---4--4-4--4--5--7-----|
|--------------------7----7--5-|-(5)---5-------------------|
|--0--0-0--0-----0-0---0-------|---------------------------|
|
|  E  E    E  a  Q     E  E  E    Q    E  E    E  E  E  E
|------------------------------|---------------------------|
|---------10-10S12-------12-12S|=15------15------15-15-15--|
|-11-12----------------9-------|------14------14-14-14-14--|
|------------------------------|---------------------------|
|------------------------------|---------------------------|
|------------------------------|---------------------------|


                              Chorus
                               E5         E5           E5
               PM--------|        PM----|    PM----|      PM----------------|
               |-3-| |-3-|          |-3-|      |-3-|        |-3-| |-3-| |-3-|
   +Q    +Q    E E E E E E     Q  E S S S Q  E S S S   Q  E S S S E E E E E E
|--------------------------||------------------------|-------------------------|
|--------------------------||o-----------------------|-------------------------|
|--------------------------||------------------------|-------------------------|
|--(7)---(7)\--------------||------------------------|-------------------------|
|--------------------1-----||o-2----------2----------|-2----------------0------|
|--------------0-1-3---3-0-||--0--0-0-0-0-0--0-0-0-0-|-0--0-0-0-0-0-1-3---3-1--|
|
|              PM--------|        PM----|    PM----|      PM----------------|
|              |-3-| |-3-|          |-3-|      |-3-|        |-3-| |-3-| |-3-|
|  +Q    +Q    E E E E E E     Q  E S S S Q  E S S S   Q  E S S S E E E E E E
|--------------------------||------------------------|-------------------------|
|-(15)--(15)\--------------||o-----------------------|-------------------------|
|-(14)--(14)\------4-6-4---||------------------------|----------------4-6-4----|
|--------------6-7-------7-||--6----------6----------|-6----------6-7-------7--|
|--------------------------||o-----------------------|-------------------------|
|--------------------------||-----0-0-0-0----0-0-0-0-|----0-0-0-0--------------|


  E5         E5           E5                       D5         D5
     PM----|    PM----|      PM----------------|      PM----|    PM----|
       |-3-|      |-3-|        |-3-| |-3-| |-3-|        |-3-|      |-3-|
  Q  E S S S Q  E S S S   Q  E S S S E E E E E E   Q  E S S S Q  E S S S
|-----------------------|------------------------|------------------------|
|-----------------------|------------------------|------------------------|
|-----------------------|------------------------|------------------------|
|-----------------------|------------------------|-7----------7-----------|
|-2----------2----------|-2----------------0-----|-5--5-5-5-5-5--5-5-5-5--|
|-0--0-0-0-0-0--0-0-0-0-|-0--0-0-0-0-0-1-3---3-1-|------------------------|
|
|    PM----|    PM----|      PM----------------|
|      |-3-|      |-3-|        |-3-| |-3-| |-3-|
| Q  E S S S Q  E S S S   Q  E S S S E E E E E E   H          H
|-----------------------|------------------------|------------------------|
|-----------------------|------------------------|------------------------|
|-----------------------|----------------4-6-4---|------------------------|
|-6----------6----------|-6----------6-7-------7-|-6----------7-----------|
|-----------------------|------------------------|------------------------|
|----0-0-0-0----0-0-0-0-|----0-0-0-0-------------|------------------------|


  D5                       E5         E5           E5           C5    D5
                   PM--|      PM----|    PM----|        PM----|
       |-3-| |-3-| |-3-|        |-3-|      |-3-|          |-3-|
  Q  E S S S E E E E E E   Q  E S S S Q  E S S S    Q   E S S S Q     Q
|------------------------|-----------------------|----------------------------||
|------------------------|-----------------------|---------------------------o||
|------------------------|-----------------------|----------------------------||
|-7----------5-8-7-------|-9---------------------|--------------5-----7-------||
|-5--5-5-5-5-------8-7-6-|-7----------2----------|--2-----------3-----5------o||
|------------------------|----0-0-0-0-0--0-0-0-0-|--0---0-0-0-0---------------||
|
|                                                               |-3-| |-3-|
| H          H             W                       +H           E E E E E E
|------------------------|-----------------------|----------------------------||
|------------------------|-----------------------|---------------------------o||
|-4----------7-----------|-9---------------------|-(9)--------------4-6-4-----||
|------------------------|-----------------------|--------------6-7-------7---||
|------------------------|-----------------------|---------------------------o||
|------------------------|-----------------------|----------------------------||


   Outro
    E5              E5
          PM------|     PM----|
              |-3-|       |-3-|
     Q    E   S S S  Q  E S S S
||------------------------------|
||o-----------------------------|
||------------------------------|
||------------------------------|
||o--2---------------2----------|
||---0----0---0-0-0--0--0-0-0-0-|
|
|                    ~~~~~~~~~~~~
|    Q   +E   E      H
||------------------------------|
||o-12--(12)S17-----17----------|
||------------------------------|
||------------------------------|
||o-----------------------------|
||------------------------------|


  E5                           E5              E5
        PM-----------------|         PM------|     PM----|
          |-3-| |-3-|  |-3-|             |-3-|       |-3-|
    Q   E S S S E E E  E E E    Q    E   S S S  Q  E S S S
|----------------------------|-----------------------------|
|----------------------------|-----------------------------|
|----------------------------|-----------------------------|
|----------------------------|-----------------------------|
|---2------------------0-----|--2---------------2----------|
|---0---0-0-0-0-0-1-3----3-1-|--0----0---0-0-0--0--0-0-0-0-|
|
|~~~~~~~~~~~~~~~~~~~~~~~~
|  +H.                 Q        Q   +E   E      H
|----------------------------|-----------------------------|
|-(17)----------------21-----|-21--(21)S12-----12----------|
|----------------------------|-----------------------------|
|----------------------------|-----------------------------|
|----------------------------|-----------------------------|
|----------------------------|-----------------------------|


  E5                            D5
        PM------------------|
          |-3-|  |-3-|  |-3-|
    Q   E S S S  E E E  E E E    Q  E S S  E S S E S S
|-----------------------------|------------------------|
|-----------------------------|------------------------|
|-----------------------------|------------------------|
|-----------------------------|--7---------------------|
|---2-------------------0-----|--5--5-5-5--5-5-5-5-5-5-|
|---0---0-0-0-0--0-1-3----3-1-|------------------------|
|
|   ~~~~                         ~~~~~~~~~~~~~~~~~~~~~~~
|  +H            Q      Q        H         H
|----------------------14-----|-14--------16-----------|
|-(12)----------12------------|------------------------|
|-----------------------------|------------------------|
|-----------------------------|------------------------|
|-----------------------------|------------------------|
|-----------------------------|------------------------|


                    |-3-| |-3-|
   E  S S E   S  S  E E E E E E
|-------------------------------|
|-------------------------------|
|-------------------------------|
|-------------------5-8-7-------|
|--5--5-5-5---5--5--------8-7-6-|
|-------------------------------|
|
|~~~~~              ~~
|  Q.        +E     H
|-17--------(17)S==21-----------|
|-------------------------------|
|-------------------------------|
|-------------------------------|
|-------------------------------|
|-------------------------------|


  E5          E5            E5                    C5       D5
      PM----|     PM----|             PM--------|
        |-3-|       |-3-|                  |-3--|
   Q  E S S S  Q  E S S S    Q        E    S  S S  Q        Q         3x
|-------------------------|-------------------------------------------||
|-------------------------|------------------------------------------o||
|-------------------------|-------------------------------------------||
|--9----------------------|------------------------5--------7---------||
|--7-----------2----------|--2---------------------3--------5--------o||
|-----0-0-0-0--0--0-0-0-0-|--0--------0----0--0-0---------------------||
|
|  ~~~~~~~~~~~~~~
|                            |--3--|  |---3---|    |--3--|  |--3--|
|  H           H             E  E  E  E  E    E    E  E  E  E  E  E   3x
|-19----------19----------|-21-19-17--------------------17------------||
|-------------------------|----------21-19---17---19-21----21-19-17--o||
|-------------------------|-------------------------------------------||
|-------------------------|-------------------------------------------||
|-------------------------|------------------------------------------o||
|-------------------------|-------------------------------------------||



Duration Legend
---------------
W - whole; H - half; Q - quarter; E - 8th; S - 16th; T - 32nd; X - 64th; a - acciaccatura
+ - note tied to previous; . - note dotted; .. - note double dotted
Uncapitalized letters represent notes that are staccato (1/2 duration)
Irregular groupings are notated above the duration line
Duration letters will always appear directly above the note/fret number it represents the
duration for.  Duration letters with no fret number below them represent rests.  Multi-
bar rests are notated in the form Wxn, where n is the number of bars to rest for.  Low
melody durations appear below the staff

Tablature Legend
----------------
 h   - hammer-on
 p   - pull-off
 b   - bend
 pb  - pre-bend
 r   - bend release (if no number after the r, then release immediately)
 /\  - slide into or out of (from/to "nowhere")
 s   - legato slide
 S   - shift slide
 - natural harmonic
[n]  - artificial harmonic
n(n) - tapped harmonic
 ~   - vibrato
 tr  - trill
 T   - tap
 TP  - trem. picking
 PM  - palm muting
\n/  - tremolo bar dip; n = amount to dip
 \n  - tremolo bar down
 n/  - tremolo bar up
/n\  - tremolo bar inverted dip
 =   - hold bend; also acts as connecting device for hammers/pulls
 <> - volume swell (louder/softer)
 x   - on rhythm slash represents muted slash
 o   - on rhythm slash represents single note slash

Misc Legend
-----------
 |  - bar
||  - double bar
||o - repeat start
o|| - repeat end
*|  - double bar (ending)
 :  - bar (freetime)
 $  - Segno
 &  - Coda
Tempo markers -  = BPM(8/16=s8/s16), where s8 = swing 8ths, s16 = swing 16ths

Related for Desert Rain tab
Advertisement will be closed in 10 seconds