Song name
# A B C D E F G H I J K L M N O P Q R S T U V W X Y Z

Iced Earth - Consequences tab

#----------------------------------PLEASE NOTE---------------------------------#
#This file is the author's own work and represents their interpretation of the #
#song. You may only use this file for private study, scholarship, or research. #
#------------------------------------------------------------------------------#

CONSEQUENCES
As recorded by Iced Earth
(From the 1998 Album SOMETHING WICKED THIS WAY COMES)


Transcribed by Russ Elton (webmaster@abysslord.com)

 Words and Music by Jon Schaffer
Arranged by Russ Elton (webmaster@abysslord.com)
 

E5
0 2 x x x x G5
3 5 x x x x D5
x 5 7 x x x A5
5 7 x x x x 


Gtr I (Eb Ab Db Gb Bb Eb) - 'Acoustic Guitar'
Gtr II (Eb Ab Db Gb Bb Eb) - 'Clean Guitar'
Gtr III (Eb Ab Db Gb Bb Eb) - 'Distortion Guitar'
Gtr IV (Eb Ab Db Gb Bb Eb) - 'Lead Guitar'
Gtr V (Eb Ab Db Gb Bb Eb) - 'Harmony Guitar'
Gtr VI (Eb Ab Db Gb Bb Eb) - 'Harmony Guitar'


 Intro
  Q=150
  Em                        G     D  Em/GEm                        G     D
 4/4
  Gtr I
  Q.   E  H        E   E  E E +E  Q  E   Q.   E  H        E   E  E E +E  Q  E
|-0----0--0-----|--0---0--0-3-(3)-2--0-|-0----0--0-----|--0---0--0-3-(3)-2--0-|
|-0----0--0-----|--0---0--0-0-(0)-3--0-|-0----0--0-----|--0---0--0-0-(0)-3--0-|
|-0----0--0-----|--0---0--0-0-(0)-2--0-|-0----0--0-----|--0---0--0-0-(0)-2--0-|
|-2----2-(2)----|-(2)-(2)-0-0-(0)-0----|-2----2-(2)----|-(2)-(2)-0-0-(0)-0----|
|-2----2-(2)----|-(2)-(2)---2-(2)------|-2----2-(2)----|-(2)-(2)---2-(2)------|
|-0----0-(0)----|-(0)-(0)---3-(3)------|-0----0-(0)----|-(0)-(0)---3-(3)------|


  Am                        G     D      Em                        G     D
  Q.   E  H        E   E  E E +E  Q  E   Q.   E  H        E   E  E E +E  Q  E
|-0----0--0-----|--0---0--0-3-(3)-2--0-|-0----0--0-----|--0---0--0-3-(3)-2--0-||
|-1----1--1-----|--1---1--0-0-(0)-3--0-|-0----0--0-----|--0---0--0-0-(0)-3--0-||
|-2----2--2-----|--2---2--0-0-(0)-2--0-|-0----0--0-----|--0---0--0-0-(0)-2--0-||
|-2----2-(2)----|-(2)-(2)---0-(0)-0----|-2----2-(2)----|-(2)-(2)-0-0-(0)-0----||
|-0----0-(0)----|-(0)-(0)---2-(2)------|-2----2-(2)----|-(2)-(2)---2-(2)------||
|---------------|-----------3-(3)------|-0----0-(0)----|-(0)-(0)---3-(3)------||


   Verse
    $
    Em                        G     D
    Q.   E  H        E   E  E E +E  Q  E
||--0----0--0-----|--0---0--0-3-(3)-2--0-|
||o-0----0--0-----|--0---0--0-0-(0)-3--0-|
||--0----0--0-----|--0---0--0-0-(0)-2--0-|
||--2----2-(2)----|-(2)-(2)-0-0-(0)-0----|
||o-2----2-(2)----|-(2)-(2)---2-(2)------|
||--0----0-(0)----|-(0)-(0)---3-(3)------|


  Em                        G     D
  Q.   E  H        E   E  E E +E  Q  E
|-0----0--0-----|--0---0--0-3-(3)-2--0--|
|-0----0--0-----|--0---0--0-0-(0)-3--0--|
|-0----0--0-----|--0---0--0-0-(0)-2--0--|
|-2----2-(2)----|-(2)-(2)-0-0-(0)-0-----|
|-2----2-(2)----|-(2)-(2)---2-(2)-------|
|-0----0-(0)----|-(0)-(0)---3-(3)-------|


  Am                        G     D
  Q.   E  H        E   E  E E +E  Q  E
|-0----0--0-----|--0---0--0-3-(3)-2--0-|
|-1----1--1-----|--1---1--0-0-(0)-3--0-|
|-2----2--2-----|--2---2--0-0-(0)-2--0-|
|-2----2-(2)----|-(2)-(2)---0-(0)-0----|
|-0----0-(0)----|-(0)-(0)---2-(2)------|
|---------------|-----------3-(3)------|


  Em                        G     D
  Q.   E  H        E   E  E E +E  Q  E
|-0----0--0-----|--0---0--0-3-(3)-2--0--||
|-0----0--0-----|--0---0--0-0-(0)-3--0-o||
|-0----0--0-----|--0---0--0-0-(0)-2--0--||
|-2----2-(2)----|-(2)-(2)-0-0-(0)-0-----||
|-2----2-(2)----|-(2)-(2)---2-(2)------o||
|-0----0-(0)----|-(0)-(0)---3-(3)-------||


   Chorus
    $$                                                        To Coda
                                                              To Coda
    Am                               G
    Gtr II
    Q   E E E Q  E   +W              Q   E E E Q  E   +W
||---------------0-|-(0)-----------|--------------0-|-(0)--------------|
||o---------0h1----|---------------|-----------0----|------------------|
||--------2--------|---------------|---------0------|------------------|
||------2----------|---------------|-------0--------|------------------|
||o-0--------------|---------------|-----2----------|------------------|
||-----------------|---------------|-3--------------|------------------|
|
|   Gtr I
|   Q.    E H        +E  E Q  H      Q.    E H        +E  E E E Q  Q
||--0-----0-0------|-(0)-0-0--0----|-3-----3-3------|-(3)-3-3-3--------|
||o-1-----1-1------|-(1)-1-1--1----|-0-----0-0------|-(0)-0-0-0--------|
||--2-----2-2------|-(2)-2-2--2----|-0-----0-0------|-(0)-0-0-0--------|
||--2-----2-2------|-(2)-2-2--2----|-0-----0-0------|-(0)-0-0-0-5--4---|
||o-0-----0-0------|-(0)-0-0--0----|-2-----2-2------|-(2)-2-2-2--------|
||-----------------|---------------|-3-----3-3------|-(3)-3-3-3-3--2---|


  Em
  Q   E E  E  Q   E    +W
|--------------------|------------------|
|-----------------0--|-(0)--------------|
|----------0---------|------------------|
|-------4-----4------|------------------|
|-----2--------------|------------------|
|-0------------------|------------------|
|
| Q.    E  E  Q   E    +Q   E  E  Q  Q
|-0-----0--0--0---0--|-(0)--0--0--------|
|-0-----0--0--0---0--|-(0)--0--0--------|
|-0-----0--0--0---0--|-(0)--0--0--------|
|-2-----2-(2)-2--(2)-|-(2)--2-(2)-5--4--|
|-2-----2-(2)-2--(2)-|-(2)--2-(2)-------|
|-0-----0-(0)-0--(0)-|-(0)--0-(0)-3--2--|


                           D.S. al Coda
  Q   E E  E  Q   E    +W
|--------------------|-------------------||
|-----------------0--|-(0)--------------o||
|----------0---------|-------------------||
|-------4-----4------|-------------------||
|-----2--------------|------------------o||
|-0------------------|-------------------||
|
| Q.    E  E  Q   E    +Q   E  E  Q  Q
|-0-----0--0--0---0--|-(0)--0--0---------||
|-0-----0--0--0---0--|-(0)--0--0--------o||
|-0-----0--0--0---0--|-(0)--0--0---------||
|-2-----2-(2)-2--(2)-|-(2)--2-(2)-5--4---||
|-2-----2-(2)-2--(2)-|-(2)--2-(2)-------o||
|-0-----0-(0)-0--(0)-|-(0)--0-(0)-3--2---||


 2nd Chorus Ending
  &
  Em
  Gtr II
  Q   E E  E  Q   E    +W
|--------------------|------------------|
|-----------------0--|-(0)--------------|
|----------0---------|------------------|
|-------4-----4------|------------------|
|-----2--------------|------------------|
|-0------------------|------------------|
|
| Gtr I
| Q.    E  E  Q   E    +Q   E  E  Q  Q
|-0-----0--0--0---0--|-(0)--0--0--------|
|-0-----0--0--0---0--|-(0)--0--0--------|
|-0-----0--0--0---0--|-(0)--0--0--------|
|-2-----2-(2)-2--(2)-|-(2)--2-(2)-5--4--|
|-2-----2-(2)-2--(2)-|-(2)--2-(2)-------|
|-0-----0-(0)-0--(0)-|-(0)--0-(0)-3--2--|


                                  G5 F#5
  Q   E E  E  Q   E    +H         H
|--------------------|------------------||
|-----------------0--|-(0)--------------||
|----------0---------|------------------||
|-------4-----4------|------------------||
|-----2--------------|------------------||
|-0------------------|------------------||
|
|                                 Gtr III
| Q.    E  E  Q   E    +Q   E  E  Q  Q
|-0-----0--0--0---0--|-(0)--0--0--------||
|-0-----0--0--0---0--|-(0)--0--0--------||
|-0-----0--0--0---0--|-(0)--0--0--------||
|-2-----2-(2)-2--(2)-|-(2)--2-(2)-5--4--||
|-2-----2-(2)-2--(2)-|-(2)--2-(2)-5--4--||
|-0-----0-(0)-0--(0)-|-(0)--0-(0)-3--2--||


 Guitar Solo
  E5                        D5/A   G5 F#5
  Gtr IV
   ~~~~~~~~~~~~~~~~~~~~~           ~~~~~~~
                             |-3-|
   W                 Q.      S S S H
|-----------------|----------------------|
|-----------------|--8------10p8p7-------|
|-----------------|----------------9-----|
|-----------------|----------------------|
|-/7--------------|----------------------|
|-----------------|----------------------|
|
| Gtr III
|     PM--|   PM
|  Q  E E E E E E   +E  E E  E     Q  Q
|-----------------|----------------------|
|-----------------|----------------------|
|-----------------|----------------------|
|--2--------2---2-|-(2)-2-2--0-----5--4--|
|--2--2-2-2-2-2-2-|-(2)-2-2--0-----5--4--|
|--0--0-0-0-0-0-0-|-(0)-0-0--------3--2--|


  E5                                             D5G5  F#5
 ~~~~~~                                            ~~~~~~~~~~~
  +S   S E S S +S  S S +S  S S +S  S E    Q.     E Q.    +E
|--------3---3-(3)---3-(3)---2-(2)---3-|--5--------------------|
|------0-0---0-(0)---0-(0)---0-(0)---0-|---------8-7-----(7)\--|
|-(9)\---------------------------------|-----------------------|
|--------------------------------------|-----------------------|
|--------------------------------------|-----------------------|
|--------------------------------------|-----------------------|
|
|          PM--------|          PM
|  Q       E    E    E     E    E    E   +E  E E E Q   Q
|--------------------------------------|-----------------------|
|--------------------------------------|-----------------------|
|--------------------------------------|-----------------------|
|--2-----------------------2---------2-|-(2)-2-2-0-5---4-------|
|--2-------2----2----2-----2----2----2-|-(2)-2-2-0-5---4-------|
|--0-------0----0----0-----0----0----0-|-(0)-0-0---3---2-------|


  A5                             G5       D5
        ~~~~~~~~          ~~~~~~~~~~~~
  |-3-|
  E E E Q   +Q     Q      Q.     +E    Q  E E
|-------5---(5)---/8---|--7------(7)\---------|
|-5-7-8----------------|--------------/8--7h8-|
|----------------------|----------------------|
|----------------------|----------------------|
|----------------------|----------------------|
|----------------------|----------------------|
|
|       PM--|      PM
| Q     E E  E  E  E E   +E  E E  E    Q  Q
|----------------------|----------------------|
|----------------------|----------------------|
|----------------------|------------------7---|
|-7-------------7----7-|-(7)-7-7--5----5--7---|
|-7-----7-7--7--7--7-7-|-(7)-7-7--5----5--5---|
|-5-----5-5--5--5--5-5-|-(5)-5-5--3----3------|


  E5                             D5G5 F#5
   ~~~~~~~~~~~~
   H      +Q       Q      W
|----------------/12---|-12--------------|
|-\5------(5)\---------|-----------------|
|----------------------|-----------------|
|----------------------|-----------------|
|----------------------|-----------------|
|----------------------|-----------------|
|
|     PM--|        PM
|  Q  E E  E   E   E E   +E  E E E Q  Q
|----------------------|-----------------|
|----------------------|-----------------|
|----------------------|-----------------|
|--2-----------2-----2-|-(2)-2-2-0-5--4--|
|--2--2-2--2---2---2-2-|-(2)-2-2-0-5--4--|
|--0--0-0--0---0---0-0-|-(0)-0-0---3--2--|


  E5                           D5/AG5 F#5
                        ~~~        ~~~~~~~
   Q    E E Q.     E    Q.     S S H
|-12\----------------|-------------------|
|---------7-8--------|-10------8-7-------|
|------/9----------9-|-------------9-----|
|--------------------|-------------------|
|--------------------|-------------------|
|--------------------|-------------------|
|
|       PM--|    PM
|  Q    E E E  E E E   +E  E E E   Q  Q
|--------------------|-------------------|
|--------------------|-------------------|
|--------------------|-------------------|
|--2-----------2---2-|-(2)-2-2-0---5--4--|
|--2----2-2-2--2-2-2-|-(2)-2-2-0---5--4--|
|--0----0-0-0--0-0-0-|-(0)-0-0-----3--2--|


  E5                         D5G5       F#5
 ~~~~~     ~               ~            ~
  +Q   E E H          E  E Q   S S  S S Q
|------------------|-----------8-7----------|
|--------7-8-------|-10--8-7-------10-8-7---|
|-(9)--9-----------|------------------------|
|------------------|------------------------|
|------------------|------------------------|
|------------------|------------------------|
|
|      PM--|   PM
|  Q   E E E E E E   +E  E E E Q        Q
|------------------|------------------------|
|------------------|------------------------|
|------------------|------------------------|
|--2---------2---2-|-(2)-2-2-0-5--------4---|
|--2---2-2-2-2-2-2-|-(2)-2-2-0-5--------4---|
|--0---0-0-0-0-0-0-|-(0)-0-0---3--------2---|


  A5                                             G5                 D5
                                                      |--3--|
   E  E  E  E    E  E  E  E    S   S  S  S  S  S S S  S  S  S  S  S  S  S  S  S
|---------------14----14----|-17p=14---------------x-14h17p14-14-14-17-14-14h15-|
|----------15------15----15-|--------15----------x------------------------------|
|-------14------------------|-----------14----14--------------------------------|
|----16---------------------|--------------16-----------------------------------|
|-17------------------------|---------------------------------------------------|
|---------------------------|---------------------------------------------------|
|
|        PM-----|      PM
|  Q     E  S S  E  E  E  E   +E      E     E    E    Q              Q
|---------------------------|---------------------------------------------------|
|---------------------------|---------------------------------------------------|
|---------------------------|----------------------------------------7----------|
|--7----------------7-----7-|-(7)-----7-----7----5----5--------------7----------|
|--7-----7-------7--7--7--7-|-(7)-----7-----7----5----5--------------5----------|
|--5-----5--5-5--5--5--5--5-|-(5)-----5-----5----3----3-------------------------|


  E5                            D5G5 F#5
    ~~~~                 ~~~~~~~~~~~~~~~~~~
    H.           E  E    H.           +E   E
|-/19-----------19h20-|-19-----------(19)\------|
|---------------------|-------------------------|
|---------------------|--------------------4/---|
|---------------------|-------------------------|
|---------------------|-------------------------|
|---------------------|-------------------------|
|
|       PM--|    PM
|   Q   E E E E  E  E    E  E E E Q    Q
|---------------------|-------------------------|
|---------------------|-------------------------|
|---------------------|-------------------------|
|---2---------2-----2-|--2--2-2-0-5----4--------|
|---2---2-2-2-2--2--2-|--2--2-2-0-5----4--------|
|---0---0-0-0-0--0--0-|--0--0-0---3----2--------|


  A5                                             G#5
  Gtr V
   ~~                                      ~~~~~~~~~~~~~
                         |----3-----|
   H         Q    Q      Q     Q    Q      H
|-----------12--------|-12----14---15-----14-----------|
|-12-------------12---|--------------------------------|
|---------------------|--------------------------------|
|---------------------|--------------------------------|
|---------------------|--------------------------------|
|---------------------|--------------------------------|
|
| Gtr IV
|  ~~                                      ~~~~~~~~~~~~~
|                        |----3-----|
|  H         Q    Q      Q     Q    Q      H
|---------------------|--------------------------------|
|-----------10--------|-10----12---13-----12-----------|
|--9--------------9---|--------------------------------|
|---------------------|--------------------------------|
|---------------------|--------------------------------|
|---------------------|--------------------------------|
|
| Gtr III
|     PM----|     PM        PM-----------------------|
|  Q  E S S  E E  E E   +E  E    E    S S  E S S E S S
|---------------------|--------------------------------|
|---------------------|--------------------------------|
|---------------------|--------------------------------|
|--7-----------7----7-|-(7)----------------------------|
|--7--7------7-7--7-7-|-(7)-7----7---------7-----6-----|
|--5--5-5-5--5-5--5-5-|-(5)-5----5----5-5--5-5-5-4-4-4-|


  G5                                                 F#5
 ~~~~~~            ~~                ~~               ~~
   +E   E  E  E    H          E   E  Q    S  S  S  S  Q
|-(14)----12-14---15-------|-17--15-14---20-19-17--------|
|------12------------------|----------------------20-19--|
|--------------------------|-----------------------------|
|--------------------------|-----------------------------|
|--------------------------|-----------------------------|
|--------------------------|-----------------------------|
|
|~~~~~~            ~~                ~~               ~~
|  +E   E  E  E    H          E   E  Q    S  S  S  S  Q
|--------------------------|-------------13-12-----------|
|-(12)----10-12---13-------|-15--13-12---------15-13-12--|
|-------9------------------|-----------------------------|
|--------------------------|-----------------------------|
|--------------------------|-----------------------------|
|--------------------------|-----------------------------|
|
|          PM-----|    PM
|   Q      E  S S  E E E E   +E   E  E E  Q           Q
|--------------------------|-----------------------------|
|--------------------------|-----------------------------|
|--------------------------|-----------------------------|
|---5----------------5---5-|-(5)--5--5----5-----------4--|
|---5------5-------5-5-5-5-|-(5)--5--5----5-----------4--|
|---3------3--3-3--3-3-3-3-|-(3)--3--3-0--3-----------2--|


  E5                                D5G5 F#5
    ~~~~
   +Q     Q    H           W
|-----------------------|-------------------|
|-(19)------------------|-------------------|
|-----------------------|-------------------|
|-----------------------|-------------------|
|-----------------------|-------------------|
|-----------------------|-------------------|
|
|   ~~~~       ~~                ~~~~~~~~~~~~
|  +Q     Q    Q    Q      E  E  H.
|-----------------------|-------------------|
|-(12)--/12---15---12---|-15s17-17----------|
|-----------------------|-------------------|
|-----------------------|-------------------|
|-----------------------|-------------------|
|-----------------------|-------------------|
|
|         PM--|     PM
|   Q     E E  E E  E E    E  E  E  E Q  Q
|-----------------------|-------------------|
|-----------------------|-------------------|
|-----------------------|-------------------|
|---2------------2----2-|--2--2--2--0-5--4--|
|---2-----2-2--2-2--2-2-|--2--2--2--0-5--4--|
|---0-----0-0--0-0--0-0-|--0--0--0----3--2--|


  E5                                  D5G5 F#5
    W                        W
|-------------------------|-------------------|
|-------------------------|-------------------|
|-------------------------|-------------------|
|-------------------------|-------------------|
|-------------------------|-------------------|
|-------------------------|-------------------|
|
|~~~~~~~        ~~~                ~~~
|  +Q      Q    Q.      E    E  E  H.
|-------------------------|-------------------|
|-(17)\--/12---15------12-|-15s17-17----------|
|-------------------------|-------------------|
|-------------------------|-------------------|
|-------------------------|-------------------|
|-------------------------|-------------------|
|
|          PM--|     PM
|   Q      E E  E  E E  E    E  E  E  E Q  Q
|-------------------------|-------------------|
|-------------------------|-------------------|
|-------------------------|-------------------|
|---2--------------2----2-|--2--2--2--0-5--4--|
|---2------2-2--2--2-2--2-|--2--2--2--0-5--4--|
|---0------0-0--0--0-0--0-|--0--0--0----3--2--|


  A5
  Gtr IV
   S  S  S  S  S  S  S  S  S  S  S  S  S  T  T  S  S
|-19p15----------------15-19-15-15-15-19-15s14-14-14-|
|-------17----------17-------------------------------|
|----------16----16----------------------------------|
|-------------17-------------------------------------|
|----------------------------------------------------|
|----------------------------------------------------|
|
| Gtr III
|              PM---------|            PM
|  Q           E     S  S  E     E     E        E
|----------------------------------------------------|
|----------------------------------------------------|
|----------------------------------------------------|
|--7-----------------------------7--------------7----|
|--7-----------7-----------7-----7-----7--------7----|
|--5-----------5-----5--5--5-----5-----5--------5----|


                                  G#5      G5
                                   ~~~~~~~~~~~~~~          ~~~
   S   S  S  S  S  S  E    E  E    Q        +Q      Q      Q.       E
|-17--14----------14-17---15-14----------|------------------------------|
|--------15----15-----------------15-----|-(15)\------------------/15---|
|-----------14---------------------------|--------/14-----14\-----/14---|
|----------------------------------------|------------------------------|
|----------------------------------------|------------------------------|
|----------------------------------------|------------------------------|
|
|         PM---------------------------|            PM----|     PM
| +E      E     E     S S  E  S S  E S S     Q      E S S  E  E E   E
|----------------------------------------|------------------------------|
|----------------------------------------|------------------------------|
|----------------------------------------|------------------------------|
|-(7)------------------------------------|---5----------------5-----5---|
|-(7)-----7-----7----------7-------6-----|---5------5------5--5-5---5---|
|-(5)-----5-----5-----5-5--5--5-5--4-4-4-|---3------3-3-3--3--3-3---3---|


                    F#5     E5                                  D5G5 F#5
  Gtr V
                                          ~~~                ~~~~~~~~~~~~
   W                          Q      Q    Q.      E    E  E  H.
|-------------------------|--------/10---14------10-|-14s15-15----------|
|-------------------------|-------------------------|-------------------|
|-------------------------|-------------------------|-------------------|
|-------------------------|-------------------------|-------------------|
|-------------------------|-------------------------|-------------------|
|-------------------------|-------------------------|-------------------|
|
| Gtr IV
|                                         ~~~                ~~~~~~~~~~~~
|  E  E  E  E  E  E  E  E    +Q      Q    Q.      E    E  E  H.
|-------------------------|-------------------------|-------------------|
|-15s17-17s15-15s17-17-17-|-(17)\--/12---15------12-|-15s17-17----------|
|-14s16-16s14-14s16-16-16-|-(16)\-------------------|-------------------|
|-------------------------|-------------------------|-------------------|
|-------------------------|-------------------------|-------------------|
|-------------------------|-------------------------|-------------------|
|
| Gtr III
|                                    PM--|     PM
|  E  E  E  E  Q     Q        Q      E E  E  E E  E    E  E  E  E Q  Q
|-------------------------|-------------------------|-------------------|
|-------------------------|-------------------------|-------------------|
|-------------------------|-------------------------|-------------------|
|--5--5--5-----5-----4----|---2--------------2----2-|--2--2--2--0-5--4--|
|--5--5--5-----5-----4----|---2------2-2--2--2-2--2-|--2--2--2--0-5--4--|
|--3--3--3--0--3-----2----|---0------0-0--0--0-0--0-|--0--0--0----3--2--|


  E5                              D5/A     G5    F#5
 ~~~~~~~        ~~~
   +Q      Q    Q.      E    E  E  Q        +Q    +E   S  S
|-(15)\--/10---14------10-|-14s15-15b17====(15)--(15)r15p14---||
|-------------------------|-----------------------------------||
|-------------------------|-----------------------------------||
|-------------------------|-----------------------------------||
|-------------------------|-----------------------------------||
|-------------------------|-----------------------------------||
|
|~~~~~~~        ~~~
|  +Q      Q    Q.      E    E  E  Q        +Q    +E   S  S
|-------------------------|-----------------------------------||
|-(17)\--/12---15------12-|-15s17-17b19====(17)--(17)r17p15---||
|-------------------------|-----------------------------------||
|-------------------------|-----------------------------------||
|-------------------------|-----------------------------------||
|-------------------------|-----------------------------------||
|
|          PM--|     PM
|   Q      E E  E  E E  E    E  E  E     E   Q     Q
|-------------------------|-----------------------------------||
|-------------------------|-----------------------------------||
|-------------------------|-----------------------------------||
|---2--------------2----2-|--2--2--2-----0---5-----4----------||
|---2------2-2--2--2-2--2-|--2--2--2-----0---5-----4----------||
|---0------0-0--0--0-0--0-|--0--0--0---------3-----2----------||


 3rd Verse
  Em                          G     D
  Gtr V
                     >
   ~~~~~~~~~~~~~~~~~~~~~
   W                +W
|-15-------------|-(15)------------------|
|----------------|-----------------------|
|----------------|-----------------------|
|----------------|-----------------------|
|----------------|-----------------------|
|----------------|-----------------------|
|
| Gtr IV
|                    >
|  ~~~~~~~~~~~~~~~~~~~~~
|  W                +W
|----------------|-----------------------|
|-17-------------|-(17)------------------|
|----------------|-----------------------|
|----------------|-----------------------|
|----------------|-----------------------|
|----------------|-----------------------|
|
| Gtr I
|  Q.   E  H         E   E  E E +E  Q  E
|--0----0--0-----|---0---0--0-3-(3)-2--0-|
|--0----0--0-----|---0---0--0-0-(0)-3--0-|
|--0----0--0-----|---0---0--0-0-(0)-2--0-|
|--2----2-(2)----|--(2)-(2)-0-0-(0)-0----|
|--2----2-(2)----|--(2)-(2)---2-(2)------|
|--0----0-(0)----|--(0)-(0)---3-(3)------|


  Em                        G     D
  W                W
|---------------|----------------------|
|---------------|----------------------|
|---------------|----------------------|
|---------------|----------------------|
|---------------|----------------------|
|---------------|----------------------|
|
| W                W
|---------------|----------------------|
|---------------|----------------------|
|---------------|----------------------|
|---------------|----------------------|
|---------------|----------------------|
|---------------|----------------------|
|
| Q.   E  H        E   E  E E +E  Q  E
|-0----0--0-----|--0---0--0-3-(3)-2--0-|
|-0----0--0-----|--0---0--0-0-(0)-3--0-|
|-0----0--0-----|--0---0--0-0-(0)-2--0-|
|-2----2-(2)----|-(2)-(2)-0-0-(0)-0----|
|-2----2-(2)----|-(2)-(2)---2-(2)------|
|-0----0-(0)----|-(0)-(0)---3-(3)------|


  Am                        G     D      Em                        G     D
  Gtr I
  Q.   E  H        E   E  E E +E  Q  E   Q.   E  H        E   E  E E +E  Q  E
|-0----0--0-----|--0---0--0-3-(3)-2--0-|-0----0--0-----|--0---0--0-3-(3)-2--0-|
|-1----1--1-----|--1---1--0-0-(0)-3--0-|-0----0--0-----|--0---0--0-0-(0)-3--0-|
|-2----2--2-----|--2---2--0-0-(0)-2--0-|-0----0--0-----|--0---0--0-0-(0)-2--0-|
|-2----2-(2)----|-(2)-(2)---0-(0)-0----|-2----2-(2)----|-(2)-(2)-0-0-(0)-0----|
|-0----0-(0)----|-(0)-(0)---2-(2)------|-2----2-(2)----|-(2)-(2)---2-(2)------|
|---------------|-----------3-(3)------|-0----0-(0)----|-(0)-(0)---3-(3)------|


  Em                        G     D      Em                        G     D
  Q.   E  H        E   E  E E +E  Q  E   Q.   E  H        E   E  E E +E  Q  E
|-0----0--0-----|--0---0--0-3-(3)-2--0-|-0----0--0-----|--0---0--0-3-(3)-2--0-|
|-0----0--0-----|--0---0--0-0-(0)-3--0-|-0----0--0-----|--0---0--0-0-(0)-3--0-|
|-0----0--0-----|--0---0--0-0-(0)-2--0-|-0----0--0-----|--0---0--0-0-(0)-2--0-|
|-2----2-(2)----|-(2)-(2)-0-0-(0)-0----|-2----2-(2)----|-(2)-(2)-0-0-(0)-0----|
|-2----2-(2)----|-(2)-(2)---2-(2)------|-2----2-(2)----|-(2)-(2)---2-(2)------|
|-0----0-(0)----|-(0)-(0)---3-(3)------|-0----0-(0)----|-(0)-(0)---3-(3)------|


                                                         D.S.S. al Dbl. Coda
  Am                        G     D      Em                        G     D
  Q.   E  H        E   E  E E +E  Q  E   Q.   E  H        E   E  E E +E  Q  E
|-0----0--0-----|--0---0--0-3-(3)-2--0-|-0----0--0-----|--0---0--0-3-(3)-2--0-||
|-1----1--1-----|--1---1--0-0-(0)-3--0-|-0----0--0-----|--0---0--0-0-(0)-3--0-||
|-2----2--2-----|--2---2--0-0-(0)-2--0-|-0----0--0-----|--0---0--0-0-(0)-2--0-||
|-2----2-(2)----|-(2)-(2)---0-(0)-0----|-2----2-(2)----|-(2)-(2)-0-0-(0)-0----||
|-0----0-(0)----|-(0)-(0)---2-(2)------|-2----2-(2)----|-(2)-(2)---2-(2)------||
|---------------|-----------3-(3)------|-0----0-(0)----|-(0)-(0)---3-(3)------||


 3rd Chorus Ending
  &&
  Em
  Gtr II
  Q   E E  E  Q   E    +W
|--------------------|------------------|
|-----------------0--|-(0)--------------|
|----------0---------|------------------|
|-------4-----4------|------------------|
|-----2--------------|------------------|
|-0------------------|------------------|
|
| Gtr I
| Q.    E  E  Q   E    +Q   E  E  Q  Q
|-0-----0--0--0---0--|-(0)--0--0--------|
|-0-----0--0--0---0--|-(0)--0--0--------|
|-0-----0--0--0---0--|-(0)--0--0--------|
|-2-----2-(2)-2--(2)-|-(2)--2-(2)-5--4--|
|-2-----2-(2)-2--(2)-|-(2)--2-(2)-------|
|-0-----0-(0)-0--(0)-|-(0)--0-(0)-3--2--|


  Q   E E  E  Q   E    +W
|--------------------|-------------------||
|-----------------0--|-(0)---------------||
|----------0---------|-------------------||
|-------4-----4------|-------------------||
|-----2--------------|-------------------||
|-0------------------|-------------------||
|
| Q.    E  E  Q   E    +Q   E  E  +H
|-0-----0--0--0---0--|-(0)--0--0--(0)----||
|-0-----0--0--0---0--|-(0)--0--0--(0)----||
|-0-----0--0--0---0--|-(0)--0--0--(0)----||
|-2-----2-(2)-2--(2)-|-(2)--2-(2)-(2)----||
|-2-----2-(2)-2--(2)-|-(2)--2-(2)-(2)----||
|-0-----0-(0)-0--(0)-|-(0)--0-(0)-(0)----||


   Out-Chorus
    E5                     G5   D5
    Gtr III
       PM|                         PM|
    Q  E E H      +H.      Q    Q  E E H      +H.      +E  E
||--------------|-------------|-------------|-----------------|
||o-------------|-------------|-------------|-----------------|
||--------------|-------------|-------------|-----------------|
||--------------|-------------|-7--7-7-7----|-(7)------(7)----|
||o-2--2-2-2----|-(2)------5--|-5--5-5-5----|-(5)------(5)p0--|
||--0--0-0-0----|-(0)------3--|-------------|-----------------|


  A5                     G5   E5
     PM|                         PM|
  Q  E E H      +H.      Q    Q  E E H      +W
|-------------|-------------|-------------|---------||
|-------------|-------------|-------------|--------o||
|-------------|-------------|-------------|---------||
|-------------|-------------|-------------|---------||
|-7--7-7-7----|-(7)------5--|-2--2-2-2----|-(2)----o||
|-5--5-5-5----|-(5)------3--|-0--0-0-0----|-(0)-----||


 Outro
                                G5    D5
  Gtr V
  ~~~~~~~~~~~~~~~~~~                          ~~~~~~~~~~~~~~~~~~
  H      H      +E  E E E +E  Q   E   E E Q   H      +H     +E  E  E  E
|-------------|---------------------|--------------|--------------------|
|-------------|---------------------|--------------|--------------------|
|-------------|---------------------|--------------|--------------------|
|--------5----|-(5)---5-4-(4)-----5-|-5-4-----4----|-(4)----(4)-4--5--4-|
|-7-----------|-----5---------5-----|-----5--------|--------------------|
|-------------|---------------------|--------------|--------------------|
|
| Gtr III
|    PM|                                  PM|
| Q  E E H      +H.             Q     Q   E E H      +H.          +E  E
|-------------|---------------------|--------------|--------------------|
|-------------|---------------------|--------------|--------------------|
|-------------|---------------------|--------------|--------------------|
|-------------|---------------------|-7---7-7-7----|-(7)----------(7)---|
|-2--2-2-2----|-(2)-------------5---|-5---5-5-5----|-(5)----------(5)p0-|
|-0--0-0-0----|-(0)-------------3---|--------------|--------------------|


  A5                              G5    E5
  ~~~~~~~~~~~         ~~~~~~~~~~        ~~~~~~~~~~~~~~~~~~
  H      +E  E E E    H     +E  E E E   W             +W
|------------------|------------------|-------------|--------|
|------------------|------------------|-------------|--------|
|------------------|------------------|-------------|--------|
|------------4-5-4-|------------4-5-4-|-------------|--------|
|-7------(7)-------|--5-----(5)-------|-7-----------|-(7)----|
|------------------|------------------|-------------|--------|
|
|    PM|                                   PM|
| Q  E E  H          +H.          Q     Q  E E H      +W
|------------------|------------------|-------------|--------|
|------------------|------------------|-------------|--------|
|------------------|------------------|-------------|--------|
|------------------|------------------|-------------|--------|
|-7--7-7--7--------|-(7)----------5---|-2--2-2-2----|-(2)----|
|-5--5-5--5--------|-(5)----------3---|-0--0-0-0----|-(0)----|


                                G5    D5
  Gtr VI
  ~~~~~~~~~~~~~~~~~~                          ~~~~~~~~~~~~~~~~~~
  H      H      +E  E E E +E  Q   E   E E Q   H      +H     +E  E  E  E
|-------------|---------------------|--------------|--------------------|
|-------------|---------------------|--------------|--------------------|
|--------4----|-(4)---4-----------4-|-4------------|---------------4----|
|-5-----------|-----4---7-(7)-4-----|---7-4---7----|-(7)----(7)-7-----7-|
|-------------|---------------------|--------------|--------------------|
|-------------|---------------------|--------------|--------------------|
|
| Gtr V
| ~~~~~~~~~~~~~~~~~~                          ~~~~~~~~~~~~~~~~~~
| H      H      +E  E E E +E  Q   E   E E Q   H      +H     +E  E  E  E
|-------------|---------------------|--------------|--------------------|
|-------------|---------------------|--------------|--------------------|
|-------------|---------------------|--------------|--------------------|
|--------5----|-(5)---5-4-(4)-----5-|-5-4-----4----|-(4)----(4)-4--5--4-|
|-7-----------|-----5---------5-----|-----5--------|--------------------|
|-------------|---------------------|--------------|--------------------|
|
| Gtr III
|    PM|                                  PM|
| Q  E E H      +H.             Q     Q   E E H      +H.          +E  E
|-------------|---------------------|--------------|--------------------|
|-------------|---------------------|--------------|--------------------|
|-------------|---------------------|--------------|--------------------|
|-------------|---------------------|-7---7-7-7----|-(7)----------(7)---|
|-2--2-2-2----|-(2)-------------5---|-5---5-5-5----|-(5)----------(5)p0-|
|-0--0-0-0----|-(0)-------------3---|--------------|--------------------|


  A5                              G5    E5
  ~~~~~~~~~~~         ~~~~~~~~~~        ~~~~~~~~~~~~~~~~~~
  H      +E  E E E    H     +E  E E E   W             +W
|------------------|------------------|-------------|--------|
|------------------|------------------|-------------|--------|
|--------------4---|--------------4---|-------------|--------|
|-7------(7)-7---7-|--4-----(4)-7---7-|-5-----------|-(5)----|
|------------------|------------------|-------------|--------|
|------------------|------------------|-------------|--------|
|
| ~~~~~~~~~~~         ~~~~~~~~~~        ~~~~~~~~~~~~~~~~~~
| H      +E  E E E    H     +E  E E E   W             +W
|------------------|------------------|-------------|--------|
|------------------|------------------|-------------|--------|
|------------------|------------------|-------------|--------|
|------------4-5-4-|------------4-5-4-|-------------|--------|
|-7------(7)-------|--5-----(5)-------|-7-----------|-(7)----|
|------------------|------------------|-------------|--------|
|
|    PM|                                   PM|
| Q  E E  H          +H.          Q     Q  E E H      +W
|------------------|------------------|-------------|--------|
|------------------|------------------|-------------|--------|
|------------------|------------------|-------------|--------|
|------------------|------------------|-------------|--------|
|-7--7-7--7--------|-(7)----------5---|-2--2-2-2----|-(2)----|
|-5--5-5--5--------|-(5)----------3---|-0--0-0-0----|-(0)----|


    E5                               G5
    Gtr III
     Q  E E  H       +H.              Q
     |  | |  |        |               |
     /  / /  /        /               /

    Gtr IV
     ~~~~~~~~~~~~~~~~~~~~
     H       H       +H         Q     Q
||----------12----|-(12)-------------12---|
||o-12------------|------------12---------|
||----------------|-----------------------|
||----------------|-----------------------|
||o---------------|-----------------------|
||----------------|-----------------------|
|
|   Gtr VI
|    ~~~~~~~~~~~~~~~~~~~~
|    H       H       +E  E E E +E  Q    E
||----------------|-----------------------|
||o---------------|-----------------------|
||-----------4----|--(4)---4------------4-|
||---5------------|------4---7-(7)-4------|
||o---------------|-----------------------|
||----------------|-----------------------|
|
|   Gtr V
|    ~~~~~~~~~~~~~~~~~~~~
|    H       H       +E  E E E +E  Q    E
||----------------|-----------------------|
||o---------------|-----------------------|
||----------------|-----------------------|
||-----------5----|--(5)---5-4-(4)------5-|
||o--7------------|------5---------5------|
||----------------|-----------------------|


  D5                                         A
   Q            E E  H       +H.          +E  E
   |            | |  |        |            |  |
   /            / /  /        /            /  o

                     ~~~~~~~~~~~~
   S  E    +S   Q    H       +H.           E  E
|-14s15---(15)s14---14----|-(14)----------12-14--|
|-------------------------|----------------------|
|-------------------------|----------------------|
|-------------------------|----------------------|
|-------------------------|----------------------|
|-------------------------|----------------------|
|
|                    ~~~~~~~~~~~~~~~~~~~
|  E    E       Q    H       +H     +E  E  E  E
|-------------------------|----------------------|
|-------------------------|----------------------|
|--4----------------------|----------------4-----|
|-------7-------4----7----|--(7)----(7)-7-----7--|
|-------------------------|----------------------|
|-------------------------|----------------------|
|
|                    ~~~~~~~~~~~~~~~~~~~
|  E    E       Q    H       +H     +E  E  E  E
|-------------------------|----------------------|
|-------------------------|----------------------|
|-------------------------|----------------------|
|--5----4------------4----|--(4)----(4)-4--5--4--|
|---------------5---------|----------------------|
|-------------------------|----------------------|


  A5                                            G5
   Q   E E  H             +H.                    Q
   |   | |  |              |                     |
   /   / /  /              /                     /

   ~~~
   H.             E  E    +S   E.  +E   E  Q     E  E
|-15-------------14-15-|-(15)s17--(17)s15-15----14-15-|
|----------------------|------------------------------|
|----------------------|------------------------------|
|----------------------|------------------------------|
|----------------------|------------------------------|
|----------------------|------------------------------|
|
|  ~~~~~~~~~~~~            ~~~~~~~~~~~~~~~~~~~
|  H       +E  E  E  E     H              +E  E  E  E
|----------------------|------------------------------|
|----------------------|------------------------------|
|-----------------4----|-------------------------4----|
|--7-------(7)-7-----7-|---4--------------(4)-7-----7-|
|----------------------|------------------------------|
|----------------------|------------------------------|
|
|  ~~~~~~~~~~~~            ~~~~~~~~~~~~~~~~~~~
|  H       +E  E  E  E     H              +E  E  E  E
|----------------------|------------------------------|
|----------------------|------------------------------|
|----------------------|------------------------------|
|--------------4--5--4-|----------------------4--5--4-|
|--7-------(7)---------|---5--------------(5)---------|
|----------------------|------------------------------|


  E5
   Q  E E H       +W
   |  | | |        |
   /  / / /        /

   ~~~~~~~~~~~~~~~~~~~
   W              +W      4x
|-12-----------|-(12)-----||
|--------------|---------o||
|--------------|----------||
|--------------|----------||
|--------------|---------o||
|--------------|----------||
|
|  ~~~~~~~~~~~~~~~~~~~
|  W              +W      4x
|--------------|----------||
|--------------|---------o||
|--------------|----------||
|--5-----------|--(5)-----||
|--------------|---------o||
|--------------|----------||
|
|  ~~~~~~~~~~~~~~~~~~~
|  W              +W      4x
|--------------|----------||
|--------------|---------o||
|--------------|----------||
|--------------|----------||
|--7-----------|--(7)----o||
|--------------|----------||




--------------------------------------------------------------------------------


Duration Legend
---------------
W - whole; H - half; Q - quarter; E - 8th; S - 16th; T - 32nd; X - 64th; a - acciaccatura
+ - note tied to previous; . - note dotted; .. - note double dotted
Uncapitalized letters represent notes that are staccato (1/2 duration)
Irregular groupings are notated above the duration line
Duration letters will always appear directly above the note/fret number it represents the
duration for.  Duration letters with no fret number below them represent rests.  Multi-
bar rests are notated in the form Wxn, where n is the number of bars to rest for.  Low
melody durations appear below the staff

Tablature Legend
----------------
 h   - hammer-on
 p   - pull-off
 b   - bend
 pb  - pre-bend
 r   - bend release (if no number after the r, then release immediately)
 /\  - slide into or out of (from/to "nowhere")
 s   - legato slide
 S   - shift slide
 - natural harmonic
[n]  - artificial harmonic
n(n) - tapped harmonic
 ~   - vibrato
 tr  - trill
 T   - tap
 TP  - trem. picking
 PM  - palm muting
\n/  - tremolo bar dip; n = amount to dip
 \n  - tremolo bar down
 n/  - tremolo bar up
/n\  - tremolo bar inverted dip
 =   - hold bend; also acts as connecting device for hammers/pulls
 <> - volume swell (louder/softer)
 x   - on rhythm slash represents muted slash
 o   - on rhythm slash represents single note slash

Misc Legend
-----------
 |  - bar
||  - double bar
||o - repeat start
o|| - repeat end
*|  - double bar (ending)
 :  - bar (freetime)
 $  - Segno
 &  - Coda
Tempo markers -  = BPM(8/16=s8/s16), where s8 = swing 8ths, s16 = swing 16ths


Tap to rate this tab
# A B C D E F G H I J K L M N O P Q R S T U V W X Y Z