Guitaretab - guitar tabs
Song name
# A B C D E F G H I J K L M N O P Q R S T U V W X Y Z

Iced Earth - Glorious Burden tab

Band - Iced Earth
Album - The Glorious Burden

Track Listings:
1. Star Spangled Banner
2. Declaration Day
3. When The Eagle Cries
4. The Reckoning (Don't Tread On Me)
5. Greenface
6. Attila
7. Red Baron/Blue Max
8. Hollow Man
9. Valley Forge
10. Waterloo
11. The Devil To Pay
12. Hold At All Costs
13. High Water Mark
14. When The Eagle Cries (Unplugged)

----------------------------------------------------

1. STAR SPANGLED BANNER
Tuning: Eb

Lots of harmony here so I'll try to break it up so it's easy to follow.


Section 1:  0:00-0:34

Guitar 1
eb|---------------------------------|
Bb|---------------------------------|
Gb|---------------------------------|
Db|----------------------------4----|
Ab|-2--------2--------2--------2----|
Eb|-0--------0--------0-------------|

eb|---------------------------------|
Bb|---------------------------------|
Gb|---------------------------------|
Db|----------4----------------------|
Ab|-2--------2--------2-------(2)---|
Eb|-0-----------------0-------(0)---|

eb|-----------------------------------|
Bb|-----------------------------------|
Gb|-----------------------------------|
Db|---------6----6--6-------4---------|
Ab|-2----6--4----3--4-------2----2----|
Eb|-0-----~--------------2~---------4-|

eb|----------------------------------|
Bb|----------------------------------|
Gb|----------------------------------|
Db|----------4-----------------------|
Ab|-2--------2----4-6-7--7--------2--|
Eb|-0-----------------------7--4--0--|

Guitar 2
eb|------------------------------------|
Bb|--------------------9-7-------------|
Gb|---------------9--------9-----------|
Db|-9--6----6--9--------------6--8--9--| ---|
Ab|------7-----------------------------|    |
Eb|------------------------------------|    |
                                            |--> Play 2x
eb|------------------------------------|    |
Bb|-----9--7---------------------------|    |
Gb|----------9--8----6-8-9--9----------|    |
Db|-9-9------------------------9--6----| ---|
Ab|---------------------------------7--|
Eb|------------------------------------|

Guitar 3
eb|----------------------16-14-12-----------|
Bb|-12----------12-17-------------------12--|
Gb|----13----13-------------------13-15-----|
Db|-------14--------------------------------| --------|
Ab|-----------------------------------------|         |
Eb|-----------------------------------------|         |
                                                      |--> Play 2x
eb|-------16--14-12------------------------------|    |
Bb|-12-12-----------16----14-16-17--17--12-------|    |
Gb|----------------------------------------13----|    |
Db|-------------------------------------------14-| ---|
Ab|----------------------------------------------|
Eb|----------------------------------------------|

Guitar 4 (Comes in the second time)
eb|----------------------------------------|
Bb|--------------9---14-14-14--------------|
Gb|-9-9-9-----9----------------13--11-9-8--|
Db|--------9-------------------------------|
Ab|----------------------------------------|
Eb|----------------------------------------|

eb|------------------------------------------------|
Bb|------------------------------------------------|
Gb|-8-8-13--11-13h14p13-11----11-11-13-13-9--------|
Db|------------------------------------------9-----|
Ab|---------------------------------------------7~-|
Eb|------------------------------------------------|


End section 1


Section 2  0:35-0:52

Guitar 1
eb|--------------------------------------------|
Bb|--------------------------------------------|
Gb|--------------------------------------------|
Db|-----------4----6----6-----4----4--------4--|
Ab|-2----2----2----3----4-----2----1-----1--2--|
Eb|-0----0----------------------------4--------|

Guitar 2
eb|-----------------------------------------------|
Bb|-----------------------------------------------|
Gb|-13-13-13--14--16--16----14-13-----13--14--14--|
Db|-------------------------------16--------------|
Ab|-----------------------------------------------|
Eb|-----------------------------------------------|

eb|---------------------------------------------------|
Bb|---------------------------------------------------|
Gb|-14--13--------------------------------------------|
Db|-----------16-14--13----11-13-14--6--8--9----9-9-9-|
Ab|---------------------------------------------------|
Eb|---------------------------------------------------|

Guitar 3
eb|-16-16-16--17--19--19----17-16-----16--17--17--|
Bb|-------------------------------19--------------|
Gb|-----------------------------------------------|
Db|-----------------------------------------------|
Ab|-----------------------------------------------|
Eb|-----------------------------------------------|

eb|-17--16-------------------------------------------------|
Bb|-----------19-17--16----14-16-17--9--11--12----12-12-12-|
Gb|--------------------------------------------------------|
Db|--------------------------------------------------------|
Ab|--------------------------------------------------------|
Eb|--------------------------------------------------------|

Guitar 4
eb|-------------------------------------------------|
Bb|-12-12-12--14--17--17----16-14-12--14--16\13-13--|
Gb|-------------------------------------------------|
Db|-------------------------------------------------|
Ab|-------------------------------------------------|
Eb|-------------------------------------------------|

eb|-------------------------------------------------------|
Bb|-13-13-14--14--14--12----12-12-11----12----------------|
Gb|-------------------------------------------14~-13~-11~-|
Db|-------------------------------------------------------|
Ab|-------------------------------------------------------|
Eb|-------------------------------------------------------|

End section 2


Section 3  0:53-End

NOTE: Ending blends into beginning of "Declaration Day", so the
last notes are denoted as ghost notes.

Guitar 1
eb|------------------------------------|
Bb|------------------------------------|
Gb|------------------------------------|
Db|---------6-------4----------4----4--|
Ab|-2----6--4----2--0--------1-2----2--|
Eb|-0--------------------4-5-----------|

eb|-------------------------------------|
Bb|-------------------------------------|
Gb|-------------------------------------|
Db|------------------------4------------|
Ab|-2----2--------2--------2--------(2)-|
Eb|-0----0--------0-----------------(0)-|

Guitar 2
eb|---------------------|
Bb|---------------------|
Gb|---------------------|
Db|---------------------|
Ab|-7--7--7-6--4--4--4--|
Eb|---------------------|

eb|----------------------------|
Bb|----------------------------|
Gb|----------------------------|
Db|----------------------------|
Ab|-9--12-11-9-7--7----9\7--6--|
Eb|----------------------------|

eb|---------------------|
Bb|---------------------|
Gb|---------------------|
Db|------------------9--|
Ab|-----7----9-11-12----|
Eb|-7-7-----------------|

eb|--------------------------|
Bb|--------------------------|
Gb|--------------------------|
Db|--------------------------|
Ab|-7--9--11----12-9----(7)--|
Eb|--------------------------|

Guitar 3
eb|---------------------------|
Bb|---------------------------|
Gb|---------------------------|
Db|-14--14--14-13-11--11--11--|
Ab|---------------------------|
Eb|---------------------------|

eb|----------------------------------|
Bb|----------------------------------|
Gb|----------------------------------|
Db|-16--19-18-16-14-14----16\14--13--|
Ab|----------------------------------|
Eb|----------------------------------|

eb|--------------------------|
Bb|--------------------------|
Gb|----------------------16--|
Db|-------14----16-18-19-----|
Ab|-14-14--------------------|
Eb|--------------------------|

eb|-----------------------------|
Bb|-----------------------------|
Gb|-----------------------------|
Db|-14--16--18----19-16----(14)-|
Ab|-----------------------------|
Eb|-----------------------------|

Guitar 4
eb|---------------------------|
Bb|-17--17--17-16-14--14--14--|
Gb|---------------------------|
Db|---------------------------|
Ab|---------------------------|
Eb|---------------------------|

eb|-----17---------------------------|
Bb|-19-----21-19-17-17----19\17------|
Gb|------------------------------20--|
Db|----------------------------------|
Ab|----------------------------------|
Eb|----------------------------------|

eb|-------------------17--19--|
Bb|-------17----19-21---------|
Gb|-16-16---------------------|
Db|---------------------------|
Ab|---------------------------|
Eb|---------------------------|

eb|---------------17------------|
Bb|-17--19--21-------19----(17)-|
Gb|-----------------------------|
Db|-----------------------------|
Ab|-----------------------------|
Eb|-----------------------------|

Guitar 5
eb|---------------------------|
Bb|---------------------------|
Gb|-13--13--13-11--9---9---9--|
Db|---------------------------|
Ab|---------------------------|
Eb|---------------------------|

eb|----------------------------------|
Bb|----------------------------------|
Gb|-14--18-16-14-13-13----14\13--11--|
Db|----------------------------------|
Ab|----------------------------------|
Eb|----------------------------------|

eb|--------------------------|
Bb|----------------------17--|
Gb|-------13----14-16-18-----|
Db|-13-13--------------------|
Ab|--------------------------|
Eb|--------------------------|

eb|-----------------------------|
Bb|-----------------------------|
Gb|-13--14--16----18-14----(13)-|
Db|-----------------------------|
Ab|-----------------------------|
Eb|-----------------------------|

--------------------------------------------------

2. DECLARATION DAY

Tuning: Eb


Lead in from Star Spangled Banner:
Guitar 1
eb|----------|
Bb|----------|
Gb|----------|
Db|-(4)------|
Ab|-(2)--2---|
Eb|------0---|

Guitar 2, 3, 4, 5
eb|-(14-12)--|
Bb|-(10--9)--|
Gb|-(11--9)--|
Db|----------|
Ab|---9--7---|
Eb|----------|



Riff 1
Guitar 1
eb|--------------------------------|
Bb|--------------------------------|
Gb|--------------------------------|
Db|--------------------------------|
Ab|--------------------------------|
Eb|-000-0-000-0-000-0-000-0-...-00-|
    *** * *** * *** * *** *     **

Guitar 2
eb|-------------------------------|
Bb|-------------------------------|
Gb|-------------------------------|
Db|-9--------9---10--------10---9-|
Ab|-7--------7----7---------7---7-|
Eb|------------0--------------0---|
               *              *
eb|-----------------------|
Bb|-----------------------|
Gb|-----------------------|
Db|-9---7----7---5----7---|
Ab|-7---5----5---3----5---|
Eb|---0--------0--------0-|
      *        *        *


Riff 2
Guitar 1
eb|----0-----------------------------------------|
Bb|----0-----------------------------------------|
Gb|----------------------------------------------|
Db|----------------------------------------------|
Ab|-2-------7-7-7-7-5-3-5----5-7-0-3----3-0-5-7\-|
Eb|-0--------------------------------------------|
                                 *        *
eb|------0--------------------------------------|
Bb|------0--------------------------------------|
Gb|---------------------------------------------|
Db|---------------------------------------------|
Ab|-----------7-7-7-7-5-3-5----5-7-0-8----8-10\-|
Eb|-000-----------------------------------------|
    ***                            *

Guitar 2
eb|----0-----------------------------------------|
Bb|----0-----------------------------------------|
Gb|----------------------------------------------|
Db|---------9-9-9-9-7-5-7----7-9-----------7-5\--|
Ab|-2-----------------------------7----7-0-------|
Eb|-0--------------------------------------------|
                                         *
eb|------0---------------------------------------|
Bb|------0---------------------------------------|
Gb|----------------------------------------------|
Db|-----------9-9-9-9-7-5-7----7-9--10----10-12\-|
Ab|----------------------------------------------|
Eb|-000------------------------------------------|
    ***


Play Riff 1  "The odds are stacked..."


Riff 2a
Guitar 1
eb|----0-----------------------------------------|
Bb|----0-----------------------------------------|
Gb|----------------------------------------------|
Db|----------------------------------------------|
Ab|-2-------7-7-7-7-5-3-5----5-7-0-3----3-0-5-7\-|
Eb|-0--------------------------------------------|
                                 *        *
     "So we make our..."
eb|------0-----------------------------------------|
Bb|------0-----------------------------------------|
Gb|------------------------------------------------|
Db|------------------------------------------------|
Ab|-----------7-7-7-7-5-3-5----5-7-0-8----8-10-0-7-|
Eb|-000--------------------------------------------|
    ***                            *           *

    "...day..."
eb|------0-----------------------------------------|
Bb|------0-----------------------------------------|
Gb|------------------------------------------------|
Db|------------------------------------------------|
Ab|-----------7-7-7-7-5-3-5----5-7-0-3----3-0-5-7\-|
Eb|-000--------------------------------------------|
    ***                            *        *
     "So we make our..."
eb|------0--------------------------------------|
Bb|------0--------------------------------------|
Gb|---------------------------------------------|
Db|---------------------------------------------|
Ab|-----------7-7-7-7-5-3-5----5-7-0-8----8-10\-|
Eb|-000-----------------------------------------|
    ***                            *

    "...day..."

Guitar 2
eb|----0-----------------------------------------|
Bb|----0-----------------------------------------|
Gb|----------------------------------------------|
Db|---------9-9-9-9-7-5-7----7-9-----------7-5\--|
Ab|-2-----------------------------7----7-0-------|
Eb|-0--------------------------------------------|
                                         *
eb|------0-----------------------------------------|
Bb|------0-----------------------------------------|
Gb|------------------------------------------------|
Db|-----------9-9-9-9-7-5-7----7-9--10----10-12--9-|
Ab|------------------------------------------------|
Eb|-000--------------------------------------------|
    ***
eb|------0-----------------------------------------|
Bb|------0-----------------------------------------|
Gb|------------------------------------------------|
Db|-----------9-9-9-9-7-5-7----7-9-----------7-5\--|
Ab|---------------------------------7----7-0-------|
Eb|-000--------------------------------------------|
    ***                                    *
eb|------0---------------------------------------|
Bb|------0---------------------------------------|
Gb|----------------------------------------------|
Db|-----------9-9-9-9-7-5-7----7-9--10----10-12\-|
Ab|----------------------------------------------|
Eb|-000------------------------------------------|
    ***



Riff 3 (Solo Rhythm)
eb|----------------------------------|
Bb|----------------------------------|
Gb|----------------------------------|
Db|-9--------------------------------|
Ab|-7--77777777777777777777777777-00-|
Eb|----------------------------------|
       ************************** **
eb|-----------------------------------|
Bb|-----------------------------------|
Gb|-----------------------------------|
Db|-10--------------------------------|
Ab|--7--77777777777777777777777777-00-|
Eb|-----------------------------------|
        ************************** **
eb|----------------------------------|
Bb|----------------------------------|
Gb|----------------------------------|
Db|-9--------------------------------|
Ab|-7--77777777777777777777777777-00-|
Eb|----------------------------------|
       ************************** **
eb|-----------------------------------|
Bb|-----------------------------------|
Gb|-----------------------------------|
Db|-7----------------5----------------|
Ab|-5--5555555555-00-3--3333333333-00-|
Eb|-----------------------------------|
       ********** **    ********** **


Solo
eb|---------------------------|
Bb|--------------------8-7----|
Gb|----------4-7b9~--------9~-|
Db|-------5-------------------|
Ab|-7~------------------------|
Eb|---------------------------|

eb|--------------------------------------|
Bb|-10-12-[12]13----12b13-12-10-12~--12~-|
Gb|--------------------------------------|
Db|--------------------------------------|
Ab|--------------------------------------|
Eb|--------------------------------------|

eb|-12-14-14b15~--------15-17-19-17~-|
Bb|-------------------17-------------|
Gb|-----------------19---------------|
Db|----------------------------------|
Ab|----------------------------------|
Eb|----------------------------------|

eb|-----14-15-17-15-14-15----------|
Bb|---15------------------15b17~~--|
Gb|-17-----------------------------|
Db|--------------------------------|
Ab|--------------------------------|
Eb|--------------------------------|

eb|----------------------------------|
Bb|----------------------------------|
Gb|----------------------------------|
Db|-------9-12-----------------14----|
Ab|----10------12-9----9-12/13----14-|
Eb|-12--------------10---------------|

eb|----------------------------------------|
Bb|----------------------12----17-12-15----|
Gb|-11----11----14-11/12----12----------14-|
Db|----14----12----------------------------|
Ab|----------------------------------------|
Eb|----------------------------------------|

eb|-14----------15----14----|
Bb|----15-17-------17----15-|
Gb|----------16-------------|
Db|-------------------------|
Ab|-------------------------|
Eb|-------------------------|

eb|-16b17~----12h15p12----15-12-15----12-|
Bb|--------------------15----------15----|
Gb|--------------------------------------|
Db|--------------------------------------|
Ab|--------------------------------------|
Eb|--------------------------------------|

eb|-------12-------------------------------------|
Bb|-15b17----12-15-------12----------------------|
Gb|----------------14b16----15p14p12-14b16~----0-|
Db|----------------------------------------------|
Ab|----------------------------------------------|
Eb|----------------------------------------------|

eb|-------12----------------12-14-------------------12-------|
Bb|-15b17----15-12-------12-------15-12-15-12-15b17----15-12-|
Gb|----------------14b16-------------------------------------|
Db|----------------------------------------------------------|
Ab|----------------------------------------------------------|
Eb|----------------------------------------------------------|

eb|----------12-14----12-------12-17p15p12h16----12-------12-12-|
Bb|-------12-------15----15b17----------------15----15b17-------|
Gb|-14b16-------------------------------------------------------|
Db|-------------------------------------------------------------|
Ab|-------------------------------------------------------------|
Eb|-------------------------------------------------------------|

eb|----------------12----------------------------------|
Bb|-15-12-15-------------------------------------------|
Gb|----------14b16----15p14p12-14----12-14-12----------|
Db|-------------------------------14----------12-14----|
Ab|-------------------------------------------------14-|
Eb|----------------------------------------------------|

eb|------------------------------|
Bb|------------------------------|
Gb|------------------------------|
Db|-12---------------------------|
Ab|----14\12-10-12----10---------|
Eb|----------------12----10/22~~-|

End Solo



Riff 4
Guitar 1
eb|---------------------------------|
Bb|---------------------------------|
Gb|---------------------------------|
Db|---------------------------------|
Ab|---------------------------------|
Eb|-0-0--00-0-0--00-0-0--00-0-0--00-|
    * *  ** * *  ** * *  ** * *  **
eb|---------------------------------|
Bb|---------------------------------|
Gb|---------------------------------|
Db|---------------------------------|
Ab|-3-3--33-3-3--33-5-5--55-5-5--55-|
Eb|---------------------------------|
    * *  ** * *  ** * *  ** * *  **
eb|---------------------------------|
Bb|---------------------------------|
Gb|---------------------------------|
Db|---------------------------------|
Ab|---------------------------------|
Eb|-0-0--00-0-0--00-0-0--00-0-0--00-|
    * *  ** * *  ** * *  ** * *  **
eb|---------------------------------|
Bb|---------------------------------|
Gb|---------------------------------|
Db|---------------------------------|
Ab|---------------------------------|
Eb|-3-3--33-3-3--33-5-5--55-5-5--55-|
    * *  ** * *  ** * *  ** * *  **

Guitar 2
eb|------------------------------------------------------|
Bb|------------------------------------------------------|
Gb|------------------------------------------------------|
Db|------------------------------------------------------|
Ab|-7--777-9-10--9--7--5--5-3----333-/7--5----5-10-9--99-|
Eb|------------------------------------------------------|

eb|-------------------------------------------------------|
Bb|-------------------------------------------------------|
Gb|-------------------------------------------------------|
Db|-------------------------------------------------------|
Ab|-7--777-9-10--9--7--5--5-10----101010-12-9----9-10-9-5-|
Eb|-------------------------------------------------------|

Guitar 3
eb|-----------------------------------------------------|
Bb|-----------------------------------------------------|
Gb|-----------------------------------------------------|
Db|-5--555-7-9--7--5--4--4-2----222-/7--4----4-9-7--77--|
Ab|-----------------------------------------------------|
Eb|-----------------------------------------------------|

eb|-------------------------------------------------|
Bb|-------------------------------------------------|
Gb|-------------------------------------------------|
Db|-5--555-7-9--7--5--4--4-9----999-10-7----7-9-7-4-|
Ab|-------------------------------------------------|
Eb|-------------------------------------------------|



Play Riff 1  "With virtue as..."


Riff 2b
Guitar 1
eb|----0-----------------------------------------|
Bb|----0-----------------------------------------|
Gb|----------------------------------------------|
Db|----------------------------------------------|
Ab|-2-------7-7-7-7-5-3-5----5-7-0-3----3-0-5-7\-|
Eb|-0--------------------------------------------|
                                 *        *
     "So we make our..."
eb|------0-----------------------------------------|
Bb|------0-----------------------------------------|
Gb|------------------------------------------------|
Db|------------------------------------------------| ------|
Ab|-----------7-7-7-7-5-3-5----5-7-0-8----8-10-0-7-|       |
Eb|-000--------------------------------------------|       |
    ***                            *           *           |
    "...day..."                                            |--> Play 3x
eb|------0-----------------------------------------|       |
Bb|------0-----------------------------------------|       |
Gb|------------------------------------------------|       |
Db|------------------------------------------------| ------|
Ab|-----------7-7-7-7-5-3-5----5-7-0-3----3-0-5-7\-|
Eb|-000--------------------------------------------|
    ***                            *        *
     "So we make our..."
eb|------0-------------------------------------------|
Bb|------0-------------------------------------------|
Gb|--------------------------------------------------|
Db|--------------------------------------------------|
Ab|-----------7-7-7-7-5-3-5----5--7--8--8--10--8--7~-|
Eb|-000----------------------------------------------|
    ***
    "...day..."                            "...breath..."


Guitar 2
eb|----0-----------------------------------------|
Bb|----0-----------------------------------------|
Gb|----------------------------------------------|
Db|---------9-9-9-9-7-5-7----7-9-----------7-5\--|
Ab|-2-----------------------------7----7-0-------|
Eb|-0--------------------------------------------|
                                         *
eb|------0-----------------------------------------|
Bb|------0-----------------------------------------|
Gb|------------------------------------------------|
Db|-----------9-9-9-9-7-5-7----7-9--10----10-12-9\-| -----|
Ab|------------------------------------------------|      |
Eb|-000--------------------------------------------|      |
    ***                                                   |
eb|------0-----------------------------------------|      |--> Play 3x
Bb|------0-----------------------------------------|      |
Gb|------------------------------------------------|      |
Db|-----------9-9-9-9-7-5-7----7-9-----------7-5\--| -----|
Ab|---------------------------------7----7-0-------|
Eb|-000--------------------------------------------|
    ***                                    *
eb|------0------------------------------------------------------|
Bb|------0------------------------------------------------------|
Gb|-------------------------------------------------------------|
Db|-----------9-9-9-9-7-5-7----7----9----10----10----12--10--9~-|
Ab|-------------------------------------------------------------|
Eb|-000---------------------------------------------------------|
    ***


Guitar fills over out chorus:
Guitar 1
eb|--------------------------------|
Bb|--------------------------------|
Gb|-11-12-11-9------9---11-12-11-9-|
Db|---------------9---9------------|
Ab|--------------------------------|
Eb|--------------------------------|

eb|-----------------------------------|
Bb|-12----10--------10----------------|
Gb|-------------12--------12----11--9-|
Db|-----------------------------------|
Ab|-----------------------------------|
Eb|-----------------------------------|

Guitar 2
eb|--------------------------------|
Bb|-10-12-10-8------8---10-12-10-8-|
Gb|---------------9---9------------|
Db|--------------------------------|
Ab|--------------------------------|
Eb|--------------------------------|

eb|-10-----8---------8----------------|
Bb|-------------12--------12----10--8-|
Gb|-----------------------------------|
Db|-----------------------------------|
Ab|-----------------------------------|
Eb|-----------------------------------|



Ending:
Guitar 1
eb|-----------------|
Bb|-----------------|
Gb|-----------------|
Db|-5----10----9----|
Ab|-3-----8----7----|
Eb|-------8----7----|
  "...breath..."

Guitar 2
eb|--------------------16-17-19~~--(19)\-|
Bb|-12-13-17~----17-19-------------------|
Gb|--------------------------------------|
Db|--------------------------------------|
Ab|--------------------------------------|
Eb|--------------------------------------|

eb|-12-14-16~----16b17--14~---------|
Bb|----------------------------17~--|
Gb|---------------------------------|
Db|---------------------------------|
Ab|---------------------------------|
Eb|---------------------------------|

-----------------------------------------------------

3. WHEN THE EAGLE CRIES

Tuning: Eb

Riff 1 (12 string acoustic)
eb|--------------------------------|
Bb|-----------------------------0--|
Gb|-----------0---------------0----|
Db|-----4---4---4-------4---4------|
Ab|---2---2-------2---2---2--------|
Eb|-0---------------0--------------|

eb|--------------------------------|
Bb|-----------------------------0--|
Gb|-----------0---------------0----|
Db|-----4---4---4-------4---4------|
Ab|---2---2-------2---2---2--------|
Eb|-0---------------0--------------|

eb|-----------------------------|
Bb|-----------------------------|
Gb|------0------------2---------|
Db|---2-----2------4------4-----|
Ab|-3----------3-5-----------5--|
Eb|-----------------------------|



Riff 2 (Distortion)
Guitar 1
eb|---------------------|
Bb|---------------------|
Gb|---------------------|
Db|-------------2----2--|
Ab|-2----2----3-3--3-3--|
Eb|-0----0--------------|
              *    *
   "...cries..."
eb|-----------------------------|
Bb|-----------------------------|
Gb|-------------7----7--7-7-----|
Db|-4----4------5----5--5-5-----|
Ab|-5----5----0----0------------|
Eb|--------------------------00-|
              *    *         **
   "Blood will flow..."

Final chord:
eb|-----|
Bb|-----|
Gb|-----|
Db|-----|
Ab|--2--|
Eb|--0--|
   "...cries..."

Guitar 2
eb|--------------------------|
Bb|------12-10-----12-10-----|
Gb|-9----------12--------12--|
Db|--------------------------|
Ab|--------------------------|
Eb|--------------------------|

eb|-------------------------------|
Bb|-10------------------10--------|
Gb|----11-----------12------12-11-|
Db|-------12----------------------|
Ab|-------------------------------|
Eb|-------------------------------|

Final note:
eb|-----|
Bb|-----|
Gb|--9--|
Db|-----|
Ab|-----|
Eb|-----|

Guitar 3
eb|---------------------------|
Bb|-------15-13-12--15-13-12--|
Gb|-12------------------------|
Db|---------------------------|
Ab|---------------------------|
Eb|---------------------------|

eb|-------------------------------|
Bb|-13-10-----------12--13--12-10-|
Gb|-------11----------------------|
Db|-------------------------------|
Ab|-------------------------------|
Eb|-------------------------------|

Final note:
eb|------|
Bb|------|
Gb|--12--|
Db|------|
Ab|------|
Eb|------|



Play Riff 1   "Out of the ashes..."
Play Riff 2   "...cries..."



Riff 3 (Solo Rhythm)
eb|------------------------------|
Bb|------------------------------|
Gb|------------------------------|
Db|------------------------------|
Ab|-2------2--------2---2--------|
Eb|-0--0-0-0--0-0-3-3-3-3--3-3-0-|
       * *    * * *   *    * * *
eb|------------------------------|
Bb|------------------------------|
Gb|------------------------------|
Db|------------------------------|
Ab|-0------0--------5---2--------|
Eb|-2--2-2-2--2-2-3-3-3-3--3-3-0-|
       * *    * * *   *    * * *
eb|------------------------------|
Bb|------------------------------|
Gb|------------------------------|
Db|------------------------------|
Ab|-2------2--------2---2--------|
Eb|-0--0-0-0--0-0-3-3-3-3--3-3-0-|
       * *    * * *   *    * * *
eb|------------------------------|
Bb|------------------------------|
Gb|------------------------------|
Db|------------------------------|
Ab|-0------0--------5---2--------|
Eb|-2--2-2-2--2-2-3-3-3-3--3-3-0-|
       * *    * * *   *    * * *
eb|------------------------------|
Bb|------------------------------|
Gb|------------------------------|
Db|-2------2------2------2-------|
Ab|-3--3-3-3--3-3-3--3-3-3--3-33-|
Eb|------------------------------|
       * *    * *    * *    * **
eb|-----------------------------|
Bb|-----------------------------|
Gb|-----------------------------|
Db|-4------4-------(9)--(7)-----| <-- harmony guitar
Ab|-5--5-5-5--5-5--10----9------|
Eb|--------------------------00-|
       * *    * *            **


Solo
eb|-------------------------------------|
Bb|-------------------------------------|
Gb|-/9--11--12--9~----11--12--9--11--12-|
Db|-------------------------------------|
Ab|-------------------------------------|
Eb|-------------------------------------|

eb|------------------------|
Bb|-/15--13--12h13---------|
Gb|----------------14~---\-|
Db|------------------------|
Ab|------------------------|
Eb|------------------------|

eb|-----14-----15-----17-19b20r19-17-19~-|
Bb|-/15----/17----/19--------------------|
Gb|--------------------------------------|
Db|--------------------------------------|
Ab|--------------------------------------|
Eb|--------------------------------------|

eb|-17\15-17b19~--17b19-17-15-17b19-17~-15-|
Bb|----------------------------------------|
Gb|----------------------------------------|
Db|----------------------------------------|
Ab|----------------------------------------|
Eb|----------------------------------------|

eb|-20b22-20--19h20-17~--|
Bb|----------------------|
Gb|----------------------|
Db|----------------------|
Ab|----------------------|
Eb|----------------------|

Harmony Guitar comes in

Guitar 1
eb|---------------------------------|
Bb|-22b24--22b24r22-20-22-20-19-20~-|
Gb|---------------------------------|
Db|---------------------------------|
Ab|---------------------------------|
Eb|---------------------------------|

eb|----------------------------------------22~--22b24r22~--(22)\-|
Bb|-19-20-20~--19-20-20~--19-20-22~--19-20-----------------------|
Gb|--------------------------------------------------------------|
Db|--------------------------------------------------------------|
Ab|--------------------------------------------------------------|
Eb|--------------------------------------------------------------|

eb|-----14-15-14-----------------------------|
Bb|-/15----------15\12-10\7-8-7--------------|
Gb|-----------------------------7------------|
Db|-------------------------------7----------|
Ab|---------------------------------10-9-7~--|
Eb|------------------------------------------|

Guitar 2
eb|---------------------------------|
Bb|-19b20--19b20r19-17-19-17-15-17~-|
Gb|---------------------------------|
Db|---------------------------------|
Ab|---------------------------------|
Eb|---------------------------------|

eb|----------------------------------------19~--19b20r19~--(19)\-|
Bb|-15-17-17~--15-17-17~--15-17-19~--15-17-----------------------|
Gb|--------------------------------------------------------------|
Db|--------------------------------------------------------------|
Ab|--------------------------------------------------------------|
Eb|--------------------------------------------------------------|

eb|------------------------------------|
Bb|-----15-16-15-----------------------|
Gb|-/16----------16\12-11\7--[silent]--|
Db|------------------------------------|
Ab|------------------------------------|
Eb|------------------------------------|

End Solo


Play Riff 2   "...cries..."


Song fades out, background leads to be finished later.

---------------------------------------------------------------------

4. THE RECKONING (DON'T TREAD ON ME)

Tuning: Eb

Riff 1
Guitar 1
eb|-----7---8-----------------|
Bb|-------7------------7-8----|
Gb|------------------------9--|
Db|-9------(9)------9-----(9)-|
Ab|-7------(7)------7-----(7)-|
Eb|-0------(0)------0-----(0)-|

Guitar 2 (Comes in later)
eb|-------------------------------------|
Bb|-------------------------------------|
Gb|-------------------------------------|
Db|-------------999--------------101010-|
Ab|-------7-777------------7-777--------|
Eb|-0-000------------0-000--------------|
    * *** * *** ***  * *** * ***  * * *
   "Destiny's called us..."
eb|------------------------------------|
Bb|------------------------------------|
Gb|------------------------------------|
Db|-------------999--777--------999-9~-|
Ab|-------7-777----------101010-----a--|
Eb|-0-000------------------------------|
    * *** * *** ***  ***  * * * ***
   "This it's for blood..."



Riff 2
eb|------------------------------------------|
Bb|------------------------------------------|
Gb|------------------------------------------|
Db|-7/9-----7/9----------7/9-----7/9---------|
Ab|-5/7-----5/7---8-8-8--5/7-----5/7---8-8-8-|
Eb|-----0-0-----0-8-8-8------0-0-----0-8-8-8-|
        * *     * * * *      * *     * * * *
eb|------------------------------|
Bb|------------------------------|
Gb|------------------------------|
Db|-7/9-----7/9------------------|
Ab|-5/7-----5/7---8-8-8--8--7--5-|
Eb|-----0-0-----0-8-8-8--8--7--5-|
        * *     * * * *


Riff 3
eb|---------------------------------------|
Bb|---------------------------------------|
Gb|---------------------------------------|
Db|--------------------5------------------|
Ab|-5-7777-7-7777-7-77---7777-7-7777-7-77-|
Eb|---------------------------------------|
      ****   ****   **   ****   ****   **
eb|----------------------------------|
Bb|----------------------------------|
Gb|----------------------------------|
Db|--------------------5-----7-------|
Ab|-5-7777-7-7777-7-77---875---------|
Eb|----------------------------6-5-3-|
      ****   ****   **   ***   * *

Harmony guitar
eb|---------------------------------------|
Bb|---------------------------------------|
Gb|--------------------4------------------|
Db|-4-5555-5-5555-5-55---5555-5-5555-5-55-|
Ab|---------------------------------------|
Eb|---------------------------------------|
      ****   ****   **   ****   ****   **
eb|----------------------------------|
Bb|----------------------------------|
Gb|--------------------4-----5-------|
Db|-4-5555-5-5555-5-55---754---------|
Ab|----------------------------5-4-2-|
Eb|----------------------------------|
      ****   ****   **   ***   * *



Play Riff 2   "You went too far this time..."
Play Riff 1   "Destiny's called us..."
Play Riff 2   "The hour's close at hand..."
Play Riff 1   "Destiny's called us..."
Play Riff 3   w/o harmony guitar

Ending chord to riff 3:
eb|-----|
Bb|-----|
Gb|-----|
Db|-----|
Ab|--2--|
Eb|--0--|


Interlude:

Guitar 1 (Clean)
eb|---------------------------------|
Bb|---------------------------------|
Gb|---------------------------------|
Db|-----9-------9-------9-------9---|
Ab|---7---7---7---7---7---7---7---7-|
Eb|-0-------0-------0-------0-------|
    * * * * * * * * * * * * * * * *
eb|-------------------------------------|
Bb|-------------------------------------|
Gb|-------------------------------------|
Db|-----10-------10-------10-------10---|
Ab|---7----7---7----7---7----7---7----7-|
Eb|-0--------0--------0--------0--------|
    * *  * * * *  * * * *  * * * *  * *
eb|---------------------------------|
Bb|---------------------------------|
Gb|---------------------------------|
Db|-----9-------9-------9-------9---|
Ab|---7---7---7---7---7---7---7---7-|
Eb|-0-------0-------0-------0-------|
    * * * * * * * * * * * * * * * *
eb|---------------------------------|
Bb|---------------------------------|
Gb|---------------------------------|
Db|-----7-------7-------7-------7---|
Ab|---7---7---7---7---7---7---7---7-|
Eb|-0-------0-------0-------0-------|
    * * * * * * * * * * * * * * * *

Guitar 2 (Clean with reverb)
eb|---------------------------------|
Bb|---------------------------------|
Gb|---------------------------------|
Db|-----9----(9)--------10----(10)--|
Ab|---7---------------7-------------|
Eb|-0---------------0---------------|

eb|-------------------------------|
Bb|-------------------------------|
Gb|-------------------------------|
Db|-----9----(9)--------7----(7)--|
Ab|---7---------------7-----------|
Eb|-0---------------0-------------|


The following guitars come in later:

Guitar 3 (Fades in, harmony guitar in () )
eb|------------------------------------|
Bb|------------------------------------|
Gb|-(11)------(12)------(11)------(9)--|
Db|---9--------10---------9--------7---|
Ab|------------------------------------|
Eb|------------------------------------|


Guitar 4
eb|-------------------------|
Bb|---10-12----------10-13--|
Gb|-9--------------9--------|
Db|-------------------------|
Ab|-------------------------|
Eb|-------------------------|

eb|---------------------10--|
Bb|---10-12----------12-----|
Gb|-9--------------9--------|
Db|-------------------------|
Ab|-------------------------|
Eb|-------------------------|


End interlude


Play Riff 3
Play Riff 2   "If it was up to me..."
Play Riff 1   "Destiny's called us..."

Ending
eb|-----|
Bb|-----|
Gb|-----|
Db|-----|
Ab|--2--|
Eb|--0--|

-------------------------------------------------------------

5. GREENFACE
Tuning: D (drop all strings a whole step)


Riff 1
Guitar 1
d|-----------------------------------|
A|-----------------------------------|
F|-----------------------------------|
C|-10-----9---------10-----9-----7---|
G|--8-----7----------8-----7-----5---|
D|----0-0---0-0-0-0----0-0---0-0---0-|
      * *   * * * *    * *   * *   *
d|----------------------------------|
A|----------------------------------|
F|----------------------------------|
C|-10-----9-------------------------|
G|--8-----7---------2-2-----2-2-----|
D|----0-0---0-0-0-0-0-0-0-0-0-0-0-0-|
      * *   * * * * * * * * * * * *

Guitar 2 (Some effect used on last four chords)
d|-----------------------------------|
A|-----------------------------------|
F|-----------------------------------|
C|-10-----9---------10-----9-----7---|
G|--8-----7----------8-----7-----5---|
D|----0-0---0-0-0-0----0-0---0-0---0-|
      * *   * * * *    * *   * *   *
d|------------------0-0-----0-0-----|
A|------------------0-0-----0-0-----|
F|----------------------------------|
C|-10-----9-------------------------|
G|--8-----7-------------------------|
D|----0-0---0-0-0-0-----0-0-----0-0-|
      * *   * * * *     * *     * *


Riff 2
d|---------------------------------------0--------0-|
A|---------------------------------------0--------0-|
F|---------------------------------------x--------x-|
C|------------------------------0-----0--2--------2-|
G|-2-2-2-0-0---0--------0-----2-----0----2--------2-|
D|-3-3-3-2-2-0-1--------1-333-----2------0--------0-|
   * * * * * *            *** * * * * *
d|---------------------------------------0----------------|
A|---------------------------------------0----------------|
F|---------------------------------------x----------------|
C|------------------------------0-----0--2----------------|
G|-2-2-2-0-0---0--------0-----2-----0----2--------3h5p3p0-|
D|-3-3-3-2-2-0-1--------1-333-----2------0----3h5---------|
   * * * * * *            *** * * * * *



Riff 3
d|-----------------------------------|
A|-----------------------------------|
F|-----------------------------------|
C|-----------------------------------|
G|-----------------------------------|
D|-0-000-0-000-00000-00000-000-00000-|
   * *** * *** ***** ***** *** *****
  "A warrior down to..."
d|---------------------------------|
A|---------------------------------|
F|---------------------------------|
C|---------------------------------|
G|----------------3--------3h5p3p0-|
D|-0-0-0-000-0000-0----3h5---------|
   * * * *** ****
  "...depths of my soul..."



Riff 4
d|--------------------------|
A|--------------------------|
F|--------------------------|
C|--------------------------|
G|-3------------5--------7\-|
D|-1--1-1-1-1-1-3--3-3-3-5\-|
      * * * * *    * * *
   "On land, in the air..."
d|---------------------------------|
A|---------------------------------|
F|---------------------------------|
C|--------9-9----10-10-----12-10---|
G|-2------7-7-----7--7------7--7---|
D|-0--0-0-----0-0------0-0-------0-|
      * *     * *      * *       *
   "...sea..."
d|--------------------------|
A|--------------------------|
F|--------------------------|
C|--------------------------|
G|-3------------5--------7\-|
D|-1--1-1-1-1-1-3--3-3-3-5\-|
      * * * * *    * * *
   "On danger..."



Play Riff 3   "My war face the last..."
Play Riff 4   "On land, in the air..."


Riff 5
d|----------------------------------|
A|----------------------------------|
F|----------------------------------|
C|----------------------------------|
G|--------------------------3h5p3p0-|
D|-0-000-000-0000000----3h5---------|
   * *** *** *******


Play Riff 1   "Ahh, greenface!"
Play Riff 2


Riff 6 (Solo Rhythm)
d|----------------------------------------|
A|----------------------------------------|
F|----------------------------------------|
C|-10-----9-------------------------------|
G|--8-----7-----------------------3h5p3p0-|
D|----000---000-0-000-000-000-3h5---------|
      ***   *** * *** *** ***
d|--------------------------|
A|--------------------------|
F|--------------------------|
C|-10-----9-----12----7--10-|
G|--8-----7-----10----5---8-|
D|----000---000-------------|
      ***   ***
d|----------------------------------------|
A|----------------------------------------|
F|----------------------------------------|
C|-10-----9-------------------------------|
G|--8-----7-----------------------3h5p3p0-|
D|----000---000-0-000-000-000-3h5---------|
      ***   *** * *** *** ***
d|----------------------------------------|
A|----------------------------------------|
F|----------------------------------------|
C|-10-----9-------------------------------|
G|--8-----7-----------------------3h5p3p0-|
D|----000---000-0-000-000-000-3h5---------|
      ***   *** * *** *** ***
d|--------------------------|
A|--------------------------|
F|--------------------------|
C|-10-----9-----12----7--10-|
G|--8-----7-----10----5---8-|
D|----000---000-------------|
      ***   ***
d|----------------------------------------|
A|----------------------------------------|
F|----------------------------------------|
C|-10-----9-------------------------------|
G|--8-----7-----------------------3h5p3p0-|
D|----000---000-0-000-000-000-3h5---------|
      ***   *** * *** *** ***


Solo
d|------------------------------|
A|------------------------------|
F|-------7h8p7------------------|
C|---6-9-a-----10-9-7-9--6------|
G|-7------------a-a-a-a--a-8-7~-|
D|-------------------------a-a--|

d|---------------------------------------------------|
A|-12h13-12p10---------------------------------------|
F|-------------12-10-9-------------------------------|
C|---------------------12-10-9-----------------------|
G|-----------------------------12-10-8---------------|
D|-------------------------------------12-10-8-7b8r7-|

d|--------------------------------------------------|
A|----------------9-12-9h12-12p10p9-13-12--10--9-9~-|
F|--------------9--------------------------------9~-|
C|-9b10r9~----9-------------------------------------|
G|--------------------------------------------------|
D|--------------------------------------------------|

d|--------------------------16-17-19/20-17-|
A|------------------------17---------------|
F|-9h10p9----9----------16-----------------|
C|--------12---12\----18-------------------|
G|-----------------/19---------------------|
D|-----------------------------------------|

d|-19-----------16------------------|
A|----15-13-12-----18--17~----(17)\-|
F|---------------------16~----(16)\-|
C|----------------------------------|
G|----------------------------------|
D|----------------------------------|

d|--------------17-20-19\------------|
A|------------18----------13---------|
F|----------17--------------16-------|
C|--------18------------------15-----|
G|------19----------------------14---|
D|-16h19--------------------------15-|

d|------------------------------------------------------|
A|-13b15-13-15p13-13\12----12-13-12b13r12-12------------|
F|----------------------14-----------------a--9\-7b9r7~-|
C|------------------------------------------------------|
G|------------------------------------------------------|
D|------------------------------------------------------|

d|----------17-19-20-19-20~~--|
A|-17-18-20-------------------|
F|----------------------------|
C|----------------------------|
G|----------------------------|
D|----------------------------|

End Solo


Play Riff 4  "On land, in the air..."


Guitar fill
d|------------------16----12----------------12-----------|
A|------------12-15----15----12-15-------15----15-17b19~-|
F|-14b16r14~-----------------------14b16-----------------|
C|-------------------------------------------------------|
G|-------------------------------------------------------|
D|-------------------------------------------------------|

End guitar fill


Play Riff 5  "...meat..."

Guitar fill
d|-/16-13-12-10-13-12-10----------------------------|
A|-----------------------13-12-10-------------------|
F|--------------------------------13-10-9-----------|
C|----------------------------------------12-10-9~~-|
G|--------------------------------------------------|
D|--------------------------------------------------|

End guitar fill


Play Riff 3  "Lagoons deep in jungles..."
Play Riff 4  "On land, in the air..."
Play Riff 5  "...meat..."
Play Riff 1  "Ahh, greenface!"


Ending:
d|---------------------------------------0--------0-|
A|---------------------------------------0--------0-|
F|---------------------------------------x--------x-|
C|------------------------------0-----0--2--------2-|
G|-2-2-2-0-0---0--------0-----2-----0----2--------2-|
D|-3-3-3-2-2-0-1--------1-333-----2------0--------0-|
   * * * * * *            *** * * * * *
d|---------------------------------------0--|
A|---------------------------------------0--|
F|---------------------------------------x--|
C|------------------------------0-----0--2--|
G|-2-2-2-0-0---0--------0-----2-----0----2--|
D|-3-3-3-2-2-0-1--------1-333-----2------0--|
   * * * * * *            *** * * * * *

---------------------------------------------------------

6. ATTILA
Tuning: Eb


Intro

Guitar 1
eb|----------------------------------------------|
Bb|----------------------------------------------|
Gb|----------------------------------------------|
Db|-2--2-0-2-------------------------------------|
Ab|-2--2-0-2----------------3--------------------|
Eb|-------------0-2-3-5-3-2----1-1----1-3-5-3-1--|
       * *      * * *   * *    *      * *   *

Final time
eb|-----------|
Bb|-----------|
Gb|-----------|
Db|-2--2-0-2--|
Ab|-2--2-0-2--|
Eb|-----------|
       * *

Guitar 2
eb|---------------------------------------------------|
Bb|---------------------------------------------------|
Gb|---------------------------------------------------|
Db|-9--9-7-9-----------7------10--------------7-------|
Ab|-7--7-5-7----7-9-10---10-9-----8-8----8-10---10-8--|
Eb|---------------------------------------------------|
       * *      * *  *    * *     *      *  *    *

Final time
eb|-----------|
Bb|-----------|
Gb|-----------|
Db|-9--9-7-9--|
Ab|-7--7-5-7--|
Eb|-----------|
       * *

Guitar 3
eb|-----------------------------------------------------------|
Bb|---------------------10-------13-----------------10--------|
Gb|-9--9-7-9----9-11-12----12-11-----10-10----10-12----12-10--|
Db|-----------------------------------------------------------|
Ab|-----------------------------------------------------------|
Eb|-----------------------------------------------------------|

Final time
eb|-----------|
Bb|-----------|
Gb|-9--9-7-9--|
Db|-----------|
Ab|-----------|
Eb|-----------|


Guitar 4
eb|--------------------------17-------20-----------------17--------|
Bb|-17--17-15-17----17-19-20----20-19-----18-18----18-20----20-18--|
Gb|----------------------------------------------------------------|
Db|----------------------------------------------------------------|
Ab|----------------------------------------------------------------|
Eb|----------------------------------------------------------------|

Final time
eb|---------------|
Bb|-17--17-15-17--|
Gb|---------------|
Db|---------------|
Ab|---------------|
Eb|---------------|


Guitar 5 (Comes in later)
eb|----------------------------------------|
Bb|-------12-----10---10----------10----10-|
Gb|-9-9-9----9-9----9----9-9-9-12----12----|
Db|----------------------------------------|
Ab|----------------------------------------|
Eb|----------------------------------------|
      * *    * *    *      * *
eb|-------------------------------------------------|
Bb|----------10----------------------------------10-|
Gb|-10-10-10----10-10-12-10-12-10-10-10-12-10-12----|
Db|-------------------------------------------------|
Ab|-------------------------------------------------|
Eb|-------------------------------------------------|
        *  *     *  *     *        *  *

End intro


Riff 1
Guitar 1
eb|--------------------------------|
Bb|--------------------------------|
Gb|--------------------------------|
Db|--------------------------------|
Ab|-2-----------------------9-7----|
Eb|-0--0-000-000-000-000-00-7-5-00-|
       * *** *** *** *** **     **
eb|--------------------------------|
Bb|--------------------------------|
Gb|--------------------------------|
Db|--------------------------------|
Ab|-5-----------------------7-9----|
Eb|-3--3-333-333-333-333-00-5-7-00-|
       * *** *** *** *** **     **
eb|--------------------------------|
Bb|--------------------------------|
Gb|--------------------------------|
Db|--------------------------------|
Ab|-3-----------------------5-3----|
Eb|-1--1-111-111-111-111-00-3-1-00-|
       * *** *** *** *** **     **
eb|---------------------------------|
Bb|---------------------------------|
Gb|---------------------------------|
Db|---------------------7-----------|
Ab|-2--------------5555-5-------3-2-|
Eb|-0--0-000-000-0---------1111-1-0-|
       * *** *** * ****    ****

Guitar 2
eb|----------------------------------|
Bb|----------------------------------|
Gb|----------------------------------|
Db|-9-----------------------16-14----|
Ab|-7--7-777-777-777-777-00-14-12-00-|
Eb|----------------------------------|
       * *** *** *** *** **       **
eb|------------------------------------------------|
Bb|------------------------------------------------|
Gb|------------------------------------------------|
Db|-12------------------------------------14-16----|
Ab|-10--10-101010-101010-101010-101010-00-12-14-00-|
Eb|------------------------------------------------|
        *   * * *  * * *  * * *  * * * **       **
eb|-----------------------------------|
Bb|-----------------------------------|
Gb|-----------------------------------|
Db|-10-----------------------12-10----|
Ab|--8--8-888-888-888-888-00-10--8-00-|
Eb|-----------------------------------|
        * *** *** *** *** **       **
eb|----------------------------------|
Bb|----------------------------------|
Gb|----------------------------------|
Db|-9-------------------7-------10\9-|
Ab|-7--7-777-777-0-5555-5--8888--8\7-|
Eb|----------------------------------|
       * *** *** * ****    ****


Play Riff 1  "He's ruled them..."


Riff 2
Guitar 1
eb|------------------------------------------|
Bb|------------------------------------------|
Gb|------------------------------------------|
Db|-2--------7--5--------7--5-------------2--|
Ab|-2--------7--5--------7--5------5------2--|
Eb|-0--------5--3--------5--3----0-2----0-0--|

Guitar 2
eb|-------------------------------------|
Bb|-------------------------------------|
Gb|-------------------------------------|
Db|-14-14141414-19-14141414-17-14141414-| ---|
Ab|-------------------------------------|    |
Eb|-------------------------------------|    |
        * * * *     * * * *     * * * *      |
eb|-----------------------------|            |--> Play 2x
Bb|-----------------------------|            |
Gb|-----------------------------|            |
Db|-16-14141414-17-1414-19-1414-| -----------|
Ab|-----------------------------|
Eb|-----------------------------|
        * * * *     * *     * *

eb|---------------------------------|
Bb|---------------------------------|
Gb|---------------------------------|
Db|-17-14141414-16-14141414-14-1414-|
Ab|---------------------------------|
Eb|---------------------------------|
        * * * *     * * * *     * *
eb|---------------------------------|
Bb|---------------------------------|
Gb|---------------------------------|
Db|-17-14141414-16-14141414-14-1414-|
Ab|---------------------------------|
Eb|---------------------------------|
        * * * *     * * * *     * *
eb|-------------------------------------|
Bb|-------------------------------------|
Gb|-------------------------------------|
Db|-14-14141414-19-14141414-17-14141414-|
Ab|-------------------------------------|
Eb|-------------------------------------|
        * * * *     * * * *     * * * *
eb|-------------------------|
Bb|-------------------------|
Gb|-------------------------|
Db|-16-14141414-17-1414-19\-|
Ab|-------------------------|
Eb|-------------------------|
        * * * *     * *


Play Riff 1   "Alliance has been made..."
Play Riff 2   "Hell awaits..."
NOTE: Guitar 2 only ends with slide when that bar
is the ending bar.


Riff 3
Guitar 1
eb|-------------------------------------------|
Bb|-------------------------------------------|
Gb|-------------------------------------------|
Db|-------------------------------------------|
Ab|-7-7777-12-7777-10-7777-9-7777-10-77-12-77-|
Eb|-------------------------------------------|
      ****    ****    ****   ****    **    **
   "Path of fire..."
eb|-------------------------------------------|
Bb|-------------------------------------------|
Gb|-------------------------------------------|
Db|-------------------------------------------|
Ab|-7-7777-12-7777-10-7777-9-7777-10-77-12-77-|
Eb|-------------------------------------------|
      ****    ****    ****   ****    **    **
   "Cities burn..."
eb|-----------------------------------------|
eb|-----------------------------------------|
Bb|-----------------------------------------|
Gb|-----------------------------------------|
Db|-----------------------------------------|
Ab|-10-7777-9-7777-7-77-10-7777-9-7777-7-77-|
Eb|-----------------------------------------|
       ****   ****   **    ****   ****   **
   "Attila's fate..."
eb|-------------------------------------------|
Bb|-------------------------------------------|
Gb|-------------------------------------------|
Db|-------------------------------------------|
Ab|-7-7777-12-7777-10-7777-9-7777-10-77-12-77-|
Eb|-------------------------------------------|
      ****    ****    ****   ****    **    **
   "He will come to..."


Guitar 2
eb|-----------------------------------------|
Bb|-----------------------------------------|
Gb|-----------------------------------------|
Db|-5-5555-10-5555-9-5555-7-5555-9-55-10-55-|
Ab|-----------------------------------------|
Eb|-----------------------------------------|
      ****    ****   ****   ****   **    **
eb|-----------------------------------------|
Bb|-----------------------------------------|
Gb|-----------------------------------------|
Db|-5-5555-10-5555-9-5555-7-5555-9-55-10-55-|
Ab|-----------------------------------------|
Eb|-----------------------------------------|
      ****    ****   ****   ****   **    **
eb|---------------------------------------|
Bb|---------------------------------------|
Gb|---------------------------------------|
Db|-9-5555-7-5555-5-55-9-5555-7-5555-5-55-|
Ab|---------------------------------------|
Eb|---------------------------------------|
      ****   ****   **   ****   ****   **
eb|-----------------------------------------|
Bb|-----------------------------------------|
Gb|-----------------------------------------|
Db|-5-5555-10-5555-9-5555-7-5555-9-55-10-55-|
Ab|-----------------------------------------|
Eb|-----------------------------------------|
      ****    ****   ****   ****   **    **




Riff 3a
Guitar 1
eb|--------------------------------------------|
Bb|--------------------------------------------|
Gb|--------------------------------------------|
Db|--------------------------------------------|
Ab|-9-9999-14-9999-12-9999-11-9999-12-99-14-99-|
Eb|--------------------------------------------|
      ****    ****    ****    ****    **    **
   "Archers stand at..."
eb|--------------------------------------------|
Bb|--------------------------------------------|
Gb|--------------------------------------------|
Db|--------------------------------------------|
Ab|-9-9999-14-9999-12-9999-11-9999-12-99-14-99-|
Eb|--------------------------------------------|
      ****    ****    ****    ****    **    **
   "Centurions all..."
eb|-------------------------------------------|
Bb|-------------------------------------------|
Gb|-------------------------------------------|
Db|-------------------------------------------|
Ab|-12-9999-11-9999-9-99-12-9999-11-9999-9-99-|
Eb|-------------------------------------------|
       ****    ****   **    ****    ****   **
   "Keep to your lines..."
eb|--------------------------------------------|
Bb|--------------------------------------------|
Gb|--------------------------------------------|
Db|--------------------------------------------|
Ab|-9-9999-14-9999-12-9999-11-9999-12-99-14-99-|
Eb|--------------------------------------------|
      ****    ****    ****    ****    **    **
   "...Mongul's sure to falter..."


Guitar 2
eb|-------------------------------------------|
Bb|-------------------------------------------|
Gb|-------------------------------------------|
Db|-7-7777-12-7777-11-7777-9-7777-11-77-12-77-|
Ab|-------------------------------------------|
Eb|-------------------------------------------|
      ****    ****    ****   ****    **    **
eb|-------------------------------------------|
Bb|-------------------------------------------|
Gb|-------------------------------------------|
Db|-7-7777-12-7777-11-7777-9-7777-11-77-12-77-|
Ab|-------------------------------------------|
Eb|-------------------------------------------|
      ****    ****    ****   ****    **    **
eb|-----------------------------------------|
Bb|-----------------------------------------|
Gb|-----------------------------------------|
Db|-11-7777-9-7777-7-77-11-7777-9-7777-7-77-|
Ab|-----------------------------------------|
Eb|-----------------------------------------|
       ****   ****   **    ****   ****   **
eb|-------------------------------------------|
Bb|-------------------------------------------|
Gb|-------------------------------------------|
Db|-7-7777-12-7777-11-7777-9-7777-11-77-12-77-|
Ab|-------------------------------------------|
Eb|-------------------------------------------|
      ****    ****    ****   ****    **    **


Riff 3b
Guitar 1
eb|-----------------------------------------------------------------|
Bb|-----------------------------------------------------------------|
Gb|-----------------------------------------------------------------|
Db|-----------------------------------------------------------------|
Ab|-11-11111111-16-11111111-14-11111111-13-11111111-14-1111-16-1111-|
Eb|-----------------------------------------------------------------|
        * * * *     * * * *     * * * *     * * * *     * *     * *
   "We will surely..."
eb|-----------------------------------------------------------------|
Bb|-----------------------------------------------------------------|
Gb|-----------------------------------------------------------------|
Db|-----------------------------------------------------------------|
Ab|-11-11111111-16-11111111-14-11111111-13-11111111-14-1111-16-1111-|
Eb|-----------------------------------------------------------------|
        * * * *     * * * *     * * * *     * * * *     * *     * *
   "We will overtake..."
eb|-----------------------------------------------------------------|
Bb|-----------------------------------------------------------------|
Gb|-----------------------------------------------------------------|
Db|-----------------------------------------------------------------|
Ab|-14-11111111-13-11111111-11-1111-14-11111111-13-11111111-11-1111-|
Eb|-----------------------------------------------------------------|
        * * * *     * * * *     * *     * * * *     * * * *     * *
   "Fight till our..."
eb|-----------------------------------------------------------------|
Bb|-----------------------------------------------------------------|
Gb|-----------------------------------------------------------------|
Db|-----------------------------------------------------------------|
Ab|-11-11111111-16-11111111-14-11111111-13-11111111-14-1111-16-1111-|
Eb|-----------------------------------------------------------------|
        * * * *     * * * *     * * * *     * * * *     * *     * *
   "...Christians devastation..."


Guitar 2
eb|--------------------------------------------|
Bb|--------------------------------------------|
Gb|--------------------------------------------|
Db|-9-9999-14-9999-13-9999-11-9999-13-99-14-99-|
Ab|--------------------------------------------|
Eb|--------------------------------------------|
      ****    ****    ****    ****    **    **
eb|--------------------------------------------|
Bb|--------------------------------------------|
Gb|--------------------------------------------|
Db|-9-9999-14-9999-13-9999-11-9999-13-99-14-99-|
Ab|--------------------------------------------|
Eb|--------------------------------------------|
      ****    ****    ****    ****    **    **
eb|-------------------------------------------|
Bb|-------------------------------------------|
Gb|-------------------------------------------|
Db|-13-9999-11-9999-9-99-13-9999-11-9999-9-99-|
Ab|-------------------------------------------|
Eb|-------------------------------------------|
       ****    ****   **    ****    ****   **
eb|--------------------------------------------|
Bb|--------------------------------------------|
Gb|--------------------------------------------|
Db|-9-9999-14-9999-13-9999-11-9999-13-99-14-99-|
Ab|--------------------------------------------|
Eb|--------------------------------------------|
      ****    ****    ****    ****    **    **


Riff 3d
Guitar 1
eb|-----------------------------------------------------------------|
Bb|-----------------------------------------------------------------|
Gb|-----------------------------------------------------------------|
Db|-----------------------------------------------------------------|
Ab|-13-13131313-18-13131313-16-13131313-15-13131313-16-1313-18-1313-|
Eb|-----------------------------------------------------------------|
        * * * *     * * * *     * * * *     * * * *     * *     * *
   "They won't overtake..."
eb|-----------------------------------------------------------------|
Bb|-----------------------------------------------------------------|
Gb|-----------------------------------------------------------------|
Db|-----------------------------------------------------------------|
Ab|-13-13131313-18-13131313-16-13131313-15-13131313-16-1313-18-1313-|
Eb|-----------------------------------------------------------------|
        * * * *     * * * *     * * * *     * * * *     * *     * *
   "God will stand before..."
eb|-----------------------------------------------------------------|
Bb|-----------------------------------------------------------------|
Gb|-----------------------------------------------------------------|
Db|-----------------------------------------------------------------|
Ab|-16-13131313-15-13131313-13-1313-16-13131313-15-13131313-13-1313-|
Eb|-----------------------------------------------------------------|
        * * * *     * * * *     * *     * * * *     * * * *     * *
   "Show us the path..."
eb|-----------------------------------------------------------------|
Bb|-----------------------------------------------------------------|
Gb|-----------------------------------------------------------------|
Db|-----------------------------------------------------------------|
Ab|-13-13131313-18-13131313-16-13131313-15-13131313-16-1313-18-1313-|
Eb|-----------------------------------------------------------------|
        * * * *     * * * *     * * * *     * * * *     * *     * *
   "...Huns destruction..."


Guitar 2
eb|-----------------------------------------------------------------|
Bb|-----------------------------------------------------------------|
Gb|-----------------------------------------------------------------|
Db|-11-11111111-16-11111111-15-11111111-13-11111111-15-1111-16-1111-|
Ab|-----------------------------------------------------------------|
Eb|-----------------------------------------------------------------|
        * * * *     * * * *     * * * *     * * * *     * *     * *
eb|-----------------------------------------------------------------|
Bb|-----------------------------------------------------------------|
Gb|-----------------------------------------------------------------|
Db|-11-11111111-16-11111111-15-11111111-13-11111111-15-1111-16-1111-|
Ab|-----------------------------------------------------------------|
Eb|-----------------------------------------------------------------|
        * * * *     * * * *     * * * *     * * * *     * *     * *
eb|-----------------------------------------------------------------|
Bb|-----------------------------------------------------------------|
Gb|-----------------------------------------------------------------|
Db|-15-11111111-13-11111111-11-1111-15-11111111-13-11111111-11-1111-|
Ab|-----------------------------------------------------------------|
Eb|-----------------------------------------------------------------|
        * * * *     * * * *     * *     * * * *     * * * *     * *
eb|-----------------------------------------------------------------|
Bb|-----------------------------------------------------------------|
Gb|-----------------------------------------------------------------|
Db|-11-11111111-16-11111111-15-11111111-13-11111111-15-1111-16-1111-|
Ab|-----------------------------------------------------------------|
Eb|-----------------------------------------------------------------|
        * * * *     * * * *     * * * *     * * * *     * *     * *


Riff 4
Guitar 1
eb|-------------------------------|
Bb|-------------------------------|
Gb|-------------------------------|
Db|-4--------5--------4--------2--|
Ab|-4--------5--------4--------2--|
Eb|-2--------3--------2--------0--|

eb|---------------------------------|
Bb|---------------------------------|
Gb|---------------------------------|
Db|-4--------5--------7----5--7--9--|
Ab|-4--------5--------7----5--7--9--|
Eb|-2--------3--------5----3--5--7--|

Guitar 2 (Slight palm mutes)
eb|-----------------------------------------------------------------|
Bb|-----------------------------------------------------------------|
Gb|-11-11111111-16-11111111-14-11111111-13-11111111-14-1111-16-1111-|
Db|-----------------------------------------------------------------|
Ab|-----------------------------------------------------------------|
Eb|-----------------------------------------------------------------|
        * * * *     * * * *     * * * *     * * * *     * *     * *
eb|-----------------------------------------------------------------|
Bb|-----------------------------------------------------------------|
Gb|-12-12121212-16-12121212-14-12121212-12-12121212-14-1212-16-1212-|
Db|-----------------------------------------------------------------|
Ab|-----------------------------------------------------------------|
Eb|-----------------------------------------------------------------|
        * * * *     * * * *     * * * *     * * * *     * *     * *
eb|-----------------------------------------------------------------|
Bb|-----------------------------------------------------------------|
Gb|-11-11111111-16-11111111-14-11111111-13-11111111-14-1111-16-1111-|
Db|-----------------------------------------------------------------|
Ab|-----------------------------------------------------------------|
Eb|-----------------------------------------------------------------|
        * * * *     * * * *     * * * *     * * * *     * *     * *
eb|--------------------------------------------|
Bb|--------------------------------------------|
Gb|-9-9999-14-9999-13-9999-11-9999-13-99-14-99-|
Db|--------------------------------------------|
Ab|--------------------------------------------|
Eb|--------------------------------------------|
      ****    ****    ****    ****    **    **
eb|-----------------------------------------------------------------|
Bb|-----------------------------------------------------------------|
Gb|-11-11111111-16-11111111-14-11111111-13-11111111-14-1111-16-1111-|
Db|-----------------------------------------------------------------|
Ab|-----------------------------------------------------------------|
Eb|-----------------------------------------------------------------|
        * * * *     * * * *     * * * *     * * * *     * *     * *
eb|-----------------------------------------------------------------|
Bb|-----------------------------------------------------------------|
Gb|-12-12121212-16-12121212-14-12121212-12-12121212-14-1212-16-1212-|
Db|-----------------------------------------------------------------|
Ab|-----------------------------------------------------------------|
Eb|-----------------------------------------------------------------|
        * * * *     * * * *     * * * *     * * * *     * *     * *
eb|---------------------------------|
Bb|---------------------------------|
Gb|-14-14141414-18-14141414-14-1414-|
Db|---------------------------------|
Ab|---------------------------------|
Eb|---------------------------------|
        * * * *     * * * *     * *
eb|---------------------------------------------|
Bb|----------------------------16~--------(16)\-|
Gb|-16-16161616-18-16161616-16------------------|
Db|---------------------------------------------|
Ab|---------------------------------------------|
Eb|---------------------------------------------|
        * * * *     * * * *


Play Riff 1   "Sing to the sky..."
Play Riff 2   "Hell awaits..."
Play Riff 4


Ending:
Guitar 1
eb|-----|
Bb|-----|
Gb|-----|
Db|-----|
Ab|--2--|
Eb|--0--|

Guitar 2
eb|-----|
Bb|-----|
Gb|-----|
Db|--9--|
Ab|--7--|
Eb|-----|

Guitar 3
eb|-----|
Bb|-----|
Gb|--9~-|
Db|-----|
Ab|-----|
Eb|-----|

Guitar 4
eb|--------|
Bb|--------|
Gb|--16~---|
Db|--------|
Ab|--------|
Eb|--------|

-----------------------------------------

7. RED BARON/BLUE MAX
Tuning: D (drop all strings a whole step)


Intro
d|---------------------------------|
A|---------------------------------|
F|---------------------------------|
C|---------------------------------|
G|-2h4-----5p4-----4p2-----2-4-5-4-|
D|-0h2-2-2-----2-2-----2-2-0-2-3-2-|
       * *     * *     * * * * * *
d|-------------------------|
A|-------------------------|
F|-------------------------|
C|-----------------5-4-----|
G|-2h4-----5p4-----3-2-0-5-|
D|-0h2-2-2-----2-2-------3-|
       * *     * * * * *


Riff 1
Guitar 1
d|---------------------------------|
A|---------------------------------|
F|---------------------------------|
C|---------------------------------|
G|-2h4-----5p4-----4p2-------------|
D|-0h2-2-2-----2-2-----2-2-0-2-3-2-|
       * *     * *     * * * * * *
d|-------------------------|
A|-------------------------|
F|-------------------------|
C|-------------------------|
G|-2h4-----5p4-----3-2-0-5-|
D|-0h2-2-2-----2-2-------3-|
       * *     * * * * *

Guitar 2
d|--------------------------------------|
A|--------------------------------------|
F|--------------------------------------|
C|-9/11-----12p11-----11p9--------------|
G|-7/-9-9-9-------9-9------9-9-7-9-10-9-|
D|--------------------------------------|
        * *       * *      * * * *  * *
d|---------------------------------|
A|---------------------------------|
F|---------------------------------|
C|-9/11-----12p11-----10-9---------|
G|-7/-9-9-9-------9-9------12-10~--|
D|---------------------------------|
        * *       * *


Riff 2
Guitar 1
d|---------------------------|
A|---------------------------|
F|---------------------------|
C|---------------------------|
G|-2-4-4--4--------4-7-7--7--|
D|-0-2-2--2--------2-5-5--5--|
   * * *           * * *
   "The son of a Major..."
d|------------------------------------------|
A|------------------------------------------|
F|------------------------------------------|
C|----------------------------554-----------|
G|-7-9-9--9---10--10-10\9--9------7-5-7-5-4-|
D|-5-7-7--7----8---8--8\7--7----------------|
   * * *                      *** * * * *
   "...his name bestowed..."

Guitar 2
d|--------------------------------|
A|--------------------------------|
F|--------------------------------|
C|-9-11-11--11-------11-14-14--14-|
G|-7--9--9---9--------9-12-12--12-|
D|--------------------------------|
   *  *  *            *  *  *
d|---------------------------------------------------------|
A|---------------------------------------------------------|
F|-----------------------------------121211----------------|
C|-14-16-16--16----17--17-17\16--16---------14-12-14-12-11-|
G|-12-14-14--14----15--15-15\14--14------------------------|
D|---------------------------------------------------------|
    *  *  *                           * * *  *  *  *  *


Play Riff 1
Play Riff 2   "One hundred miles an hour..."
Play Riff 1   "Red baron!"


Riff 3
Guitar 1
d|------------------------------|
A|------------------------------|
F|------------------------------|
C|-554------------554-----------|
G|-----7-5-7-5-4------7-5-7-5-4-|
D|------------------------------|
   *** * * * *    *** * * * *
d|-------------------------------|
A|-------------------------------|
F|-------------------------------|
C|-554-----554-----554-----------|
G|-----7-5-----7-5-----7-5-7-5-4-|
D|-------------------------------|
   *** * * *** * * *** * * * *

Guitar 2
d|----------------------------------------------|
A|----------------------------------------------|
F|-121211-----------------121211----------------|
C|--------14-12-14-12-11---------14-12-14-12-11-|
G|----------------------------------------------|
D|----------------------------------------------|
    * * *  *  *  *  *      * * *  *  *  *  *
d|-------------------------------------------------|
A|-------------------------------------------------|
F|-121211-------121211-------121211----------------|
C|--------14-12--------14-12--------14-12-14-12-11-|
G|-------------------------------------------------|
D|-------------------------------------------------|
    * * *  *  *  * * *  *  *  * * *  *  *  *  *



Riff 4
Guitar 1 (Play 2x)
d|---------------------------------|
A|-------------------5-------------|
F|-------6-----7-----------7---6---|
C|-4-444---444---444---444---4---4-|
G|---------------------------------|
D|---------------------------------|
     ***   ***   ***   ***   *   *
d|----------------------------------|
A|----------------------------------|
F|-6h7p6---6--------6h7p6---6-------|
C|-------9---7-6----------9---7-6---|
G|---------------9----------------9-|
D|----------------------------------|
         * * * *          * * * *

Guitar 2
d|--------------------------------------------|
A|--------------------------------------------|
F|--------------------------9----7--4---/7-6--|
C|-4----7----9--7--9--11----------------------|
G|--------------------------7----5--2---/5-4--|
D|-2----5----7--5--7---9----------------------|



Riff 4a
Guitar 1 (Play 2x)
d|---------------------------------|
A|-------------------7-------------|
F|-------8-----9-----------9---8---|
C|-6-666---666---666---666---6---6-|
G|---------------------------------|
D|---------------------------------|
     ***   ***   ***   ***   *   *
d|--------------------------------------|
A|--------------------------------------|
F|-8h9p8----8---------8h9p8----8--------|
C|-------11---9-8-----------11---9-8----|
G|----------------11-----------------11-|
D|--------------------------------------|
          * * * *            * * * *

Guitar 2
d|--------------------------------------------|
A|--------------------------------------------|
F|------4----6--4--6--8----11----9--6---/9-8--|
C|-6------------------------------------------|
G|------2----4--2--4--6-----9----7--4---/7-6--|
D|-4------------------------------------------|




Riff 5
Guitar 1
d|---------------------------------|
A|---------------------------------|
F|-------------6-----------7-6-4---|
C|-4-444-7-444---444-7-444-------7-|
G|---------------------------------|
D|---------------------------------|
     ***   ***   ***   ***

Guitar 2
d|-------------------------------------|
A|-------------------------------------|
F|--------------9------------11-9-7----|
C|-7-777-11-777---777-11-777--------11-|
G|-------------------------------------|
D|-------------------------------------|
     ***    ***   ***    ***

Riff 5a
Guitar 1
d|---------------------------------|
A|---------------------------------|
F|-------------8-----------9-8-6---|
C|-6-666-9-666---666-9-666-------9-|
G|---------------------------------|
D|---------------------------------|
     ***   ***   ***   ***

Guitar 2
d|---------------------------------------|
A|---------------------------------------|
F|--------------11------------13-11-9----|
C|-9-999-13-999----999-13-999---------13-|
G|---------------------------------------|
D|---------------------------------------|
     ***    ***    ***    ***


Play Riff 5
Play Riff 5a
Play Riff 4
Play Riff 4a
Play Riff 5
Play Riff 5a



Riff 6
Guitar 1
d|-----------------------------------|
A|-----------------------------------|
F|-----------------------------------|
C|-----------------------------------|
G|-9999999999999999-7777777777777777-|
D|-----------------------------------|
   **************** ****************
  "The red battle..."
d|-----------------------------------|
A|-----------------------------------|
F|-----------------------------------|
C|-----------------------------------|
G|-5555555555555555-4444444444444444-|
D|-----------------------------------|
   **************** ****************
  "...flyer..."
d|-----------------------------------|
A|-----------------------------------|
F|-----------------------------------|
C|-----------------------------------|
G|-9999999999999999-7777777777777777-|
D|-----------------------------------|
   **************** ****************
  "Red like..."

1st ending
d|------------------------------------|
A|------------------------------------|
F|------------------------------------|
C|------------------------------------|
G|-2222222222222222-44444444-77777777-|
D|------------------------------------|
   **************** ******** ********
  "Fire..."

2nd ending
d|-----------------------------------|
A|-----------------------------------|
F|-----------------------------------|
C|-----------------------------------|
G|-2222222222222222-4444444444444444-|
D|-----------------------------------|
   **************** ****************
  "..aces!"

Guitar 2
d|-------------------------------------------|
A|-------------------------------------------|
F|-------------------------------------------|
C|-4----6----7----6--------4----6----9----6--|
G|-------------------------------------------|
D|-------------------------------------------|

Guitar 3
d|-------------------------------------------|
A|-------------------------------------------|
F|-2----4----6----4--------2----4----9----6--|
C|-------------------------------------------|
G|-------------------------------------------|
D|-------------------------------------------|

Guitar 4
d|-------------------------------------------|
A|-10--12---14---12-------10---12---17---14--|
F|-------------------------------------------|
C|-------------------------------------------|
G|-------------------------------------------|
D|-------------------------------------------|



Riff 3a
Guitar 1
d|------------------------------|
A|------------------------------|
F|------------------------------|
C|-554------------554-----------|
G|-----7-5-7-5-4------7-5-7-5-4-|
D|------------------------------|
   *** * * * *    *** * * * *
d|-------------------------------|
A|-------------------------------|
F|-------------------------------|
C|-554-------------------------5-|
G|-----7-5-775-4---554-----------|
D|---------------7-----7-5-7-5-3-|
   *** * * *** * * *** * * * *

Guitar 2 (Very low in the mix)
d|----------------------------------------------|
A|----------------------------------------------|
F|-121211-----------------121211----------------|
C|--------14-12-14-12-11---------14-12-14-12-11-|
G|----------------------------------------------|
D|----------------------------------------------|
    * * *  *  *  *  *      * * *  *  *  *  *
d|-------------------------------------------------|
A|-------------------------------------------------|
F|-121211------------------------------------------|
C|--------14-12-141412-11----121211----------------|
G|------------------------14--------14-12-14-12-10-|
D|-------------------------------------------------|
    * * *  *  *  * * *  *  *  * * *  *  *  *  *



Play Intro
Play Riff 1   Solo Rhythm


Solo
d|--------7-9-10-9^-----------7-9-12^-| <-- not sure about the pinches
A|---------------a---------10------a--|
F|---7-11--------------6-9------------|
C|-9-----------------7----------------|
G|------------------------------------|
D|------------------------------------|
   * *  *            * * *
d|------------------------|
A|-------8-10/12/17\5/7~~-| <--loose slide
F|-----7------------------|
C|---9--------------------|
G|-9----------------------|
D|------------------------|
   * * *
d|---------------------------------------------------------------|
A|-------12-15-14b15r14----14-12-14b15r14-12-14b15r14~-14b15r14~-|
F|-11-14-----------------11--------------------------------------|
C|---------------------------------------------------------------|
G|---------------------------------------------------------------|
D|---------------------------------------------------------------|

d|-21-20-19-18----------------19-18-17-16----------------|
A|-------------22-21-20-19\18-------------20-19-18-17\16-|
F|-------------------------------------------------------|
C|-------------------------------------------------------|
G|-------------------------------------------------------|
D|-------------------------------------------------------|

d|-18-17-16-15-------------------------------------------|
A|-------------19-18-17-16\15-20-19-18-17----------------|
F|----------------------------------------20-19-18-17\16-|
C|-------------------------------------------------------|
G|-------------------------------------------------------|
D|-------------------------------------------------------|

d|-------15-19-------14-18-------13-17-------12-16-|
A|----15----------14----------13----------12-------|
F|-16----------15----------14----------13----------|
C|-------------------------------------------------|
G|-------------------------------------------------|
D|-------------------------------------------------|

d|-------14-------15-19b21r19--21-18-18b19r18~~--|
A|----14-------15--------------------------------|
F|-15-------16-----------------------------------|
C|-----------------------------------------------|
G|-----------------------------------------------|
D|-----------------------------------------------|

End Solo


Play Riff 2   "His British quarry..."
Play Riff 1   "Red Baron!"
Play Riff 3a

Ending:
d|-------|
A|-------|
F|-------|
C|-------|
G|--2-4--|
D|--0-2--|
    * *

---------------------------------------------------------

8. HOLLOW MAN
Tuning: Eb

Listen for strumming pattern:

Riff 1 (12 string acoustic)
eb|-----------------------7---------------|
Bb|----8------------------8---------------|
Gb|----9--------0---------9--------0------|
Db|----9------4----4------9------4----4---|
Ab|----7----5--------5----7----5--------5-|
Eb|-0------------------0------------------|


Riff 2 (12 string acoustic)
eb|-------------------------0-------|
Bb|-------0---------------0---0-----|
Gb|-----5----5----------5-------5---|
Db|---7--------7------7-----------7-|
Ab|-0---------------0---------------|
Eb|---------------------------------|
   "Looking for solitude..."
eb|-----------------------------|
Bb|-------0---------0------0----|
Gb|-----5----5--------0---------|
Db|---7--------7--------7----5--|
Ab|-0---------------------------|
Eb|-----------------------------|
   "Lost in humanity..."


Play Riff 1  "True knowledge..."
Play Riff 2  "Searching for inner peace..."



Riff 3 (Distortion)
eb|-------------------------|
Bb|-------------------------|
Gb|--------9----(9)\--------|
Db|--------9----(9)\--4--4--|
Ab|-2------7----(7)\--5--5--|
Eb|-0----0------------------|
         *
           "Don't want to..."
eb|-------------------------|
Bb|-------------------------|
Gb|--------9----(9)\--------|
Db|--------9----(9)\--2--2--|
Ab|-2------7----(7)\--3--3--|
Eb|-0----0------------------|
         *
           "...man..."
eb|-------------------------|
Bb|-------------------------|
Gb|--------9----(9)\--------|
Db|--------9----(9)\--4--4--|
Ab|-2------7----(7)\--5--5--|
Eb|-0----0------------------|
         *
           "Ain't gonna be..."

1st ending:
eb|-----------------------------|
Bb|-----------------------------|
Gb|-----------------------------|
Db|-2------2------2------2-4----|
Ab|-3--3-3-3--3-3-3--3-3-3-5----|
Eb|---------------------------5-|
       * *    * *    * *      *
   "...man..."

2nd ending:
eb|---------------------------------|
Bb|---------------------------------|
Gb|-----------------------------9\--| [final chord blends]
Db|-2------2------2------2-4--4-9\--| [ into next verse  ]
Ab|-3--3-3-3--3-3-3--3-3-3-5--5-7\--|
Eb|---------------------------------|
       * *    * *    * *
   "...man..."


Play Riff 1  "Sadness comes knocking..."
Play Riff 2  "Peace will come..."
Play Riff 1  "Darkness caress..."
Play Riff 2  "Emptiness goes away..."


Riff 3a (Distortion)
eb|-------------------------|
Bb|-------------------------|
Gb|--------9----(9)\--------|
Db|--------9----(9)\--4--4--|
Ab|-2------7----(7)\--5--5--|
Eb|-0----0------------------|
         *
           "Don't want to..."
eb|-------------------------|
Bb|-------------------------|
Gb|--------9----(9)\--------|
Db|--------9----(9)\--2--2--|
Ab|-2------7----(7)\--3--3--|
Eb|-0----0------------------|
         *
           "...man..."
eb|-------------------------|
Bb|-------------------------|
Gb|--------9----(9)\--------|
Db|--------9----(9)\--4--4--|
Ab|-2------7----(7)\--5--5--|
Eb|-0----0------------------|
         *
           "Ain't gonna be..."

1st ending:
eb|-----------------------------|
Bb|-----------------------------|
Gb|-----------------------------|
Db|-2------2------2------2-4----|
Ab|-3--3-3-3--3-3-3--3-3-3-5----|
Eb|---------------------------5-|
       * *    * *    * *      *
   "...man..."

2nd ending:
eb|-----------------------------|
Bb|-----------------------------|
Gb|-----------------------------|
Db|-2------2------2------2-4--4-|
Ab|-3--3-3-3--3-3-3--3-3-3-5--5-|
Eb|-----------------------------|
       * *    * *    * *
   "...man..."



Riff 4
eb|-------------------------------------------|
Bb|-------------------------------------------|
Gb|-------------------------------------------|
Db|---5----7---9--7--5-4--4-2-4----5--7--5--4-|
Ab|---7----9--10--9--7-5--5-3-5----7--9--7--5-|
Eb|-0-----------------------------------------|
                          * *
      "I rise up..."                              x3
eb|------------------------------------------------|
Bb|------------------------------------------------|
Gb|------------------------------------------------|
Db|-5--5-4-5----7---9--7--5-4--4-2-4----5--7--5--4-|
Ab|-7--7-5-7----9--10--9--7-5--5-3-5----7--9--7--5-|
Eb|------------------------------------------------|
       * *                     * *
    "...the phoenix..."


Guitar fill
eb|-------------------------------------|
Bb|-------------------------------------|
Gb|-------------------------------------|
Db|-------------------------------------|
Ab|-------------------------------------|
Eb|-------------------------------------|

eb|-------------------------------------|
Bb|-------------------------------------|
Gb|-------------------------------------|
Db|-------------------------------------|
Ab|-------------------------------------|
Eb|-------------------------------------|

eb|-------------------------------------|
Bb|-------------------------------------|
Gb|-------------------------------------|
Db|-------------------------------------|
Ab|-------------------------------------|
Eb|-------------------------------------|

eb|-------------------------------------|
Bb|-------------------------------------|
Gb|-------------------------------------|
Db|-------------------------------------|
Ab|-------------------------------------|
Eb|-------------------------------------|

End guitar fill



Riff 3b
eb|-------------------------|
Bb|-------------------------|
Gb|--------9----(9)\--------|
Db|--------9----(9)\--4--4--|
Ab|-2------7----(7)\--5--5--|
Eb|-0----0------------------|
         *
           "Don't want to..."
eb|-------------------------|
Bb|-------------------------|
Gb|--------9----(9)\--------|
Db|--------9----(9)\--2--2--|
Ab|-2------7----(7)\--3--3--|
Eb|-0----0------------------|
         *
           "...man..."
eb|-------------------------|
Bb|-------------------------|
Gb|--------9----(9)\--------|
Db|--------9----(9)\--4--4--|
Ab|-2------7----(7)\--5--5--|
Eb|-0----0------------------|
         *
           "Ain't gonna be..."
eb|-----------------------------|
Bb|-----------------------------|
Gb|-----------------------------|
Db|-2------2------2------2-4--4-|
Ab|-3--3-3-3--3-3-3--3-3-3-5--5-|
Eb|-----------------------------|
       * *    * *    * *
    "...man..."


Play Riff 4   Song fades out


Ending solos

1st lick
eb|--------------------------------------------------------|
Bb|----15b17-----------------------------------------------|
Gb|-12-------14b16r14-12----14-12b14-----------------------|
Db|----------------------14----------14---12---------------|
Ab|-------------------------------------14---14\12-10------|
Eb|---------------------------------------------------12~\-|

2nd lick
eb|--------------------12-15-12----------------12--------------|
Bb|-[15]17----(17)~-------------15-12-15-----------------------|
Gb|--------------------------------------14b16----[14]16r14p12-|
Db|------------------------------------------------------------|
Ab|------------------------------------------------------------|
Eb|------------------------------------------------------------|

eb|-------------------------|
Bb|-------------------------|
Gb|-14----12-14-12b14r12~~\-|
Db|----14-------------------|
Ab|-------------------------|
Eb|-------------------------|

3rd lick
eb|-------------------------------------------------------------|
Bb|-17-19-20-[20]22r20-19-20-19b20r19-17------------------------|
Gb|--------------------------------------19-[19]21--(21)r19b21~-|
Db|-------------------------------------------------------------|
Ab|-------------------------------------------------------------|
Eb|-------------------------------------------------------------|


Main solo
eb|-------------------------------------------------|
Bb|-------------------------------------------------|
Gb|-------------------------------------------------|
Db|-----------------------------12------------------|
Ab|-12~~----------(12)~----14~-----12b14----(14)r12-|
Eb|-------------------------------------------------|

eb|-----------------------------------------------|
Bb|-----------------------------------------------|
Gb|-----------------------------------------------|
Db|-----------------------------------------------|
Ab|-12b14r12-10-14b15--(15)r14-12-10-12-[12]14r12-|
Eb|-----------------------------------------------|

eb|-----------------------------------------------------|
Bb|----------------------------------------12-----------|
Gb|----------------------------------------12-----------|
Db|-------------------12h14p12--------12h14---14p12-14~-|
Ab|--------------12h14--------14-12h14------------------|
Eb|-10\-2~--12h15---------------------------------------|

eb|---------------------------------------------|
Bb|---15-------10-12-[12]13r12-10----12-11-10~--|
Gb|-14----------------------------12------------|
Db|-----14~-------------------------------------|
Ab|---------------------------------------------|
Eb|---------------------------------------------|

eb|---------------------------------------|
Bb|-7-10-------7------7-7------------7----|
Gb|------9b11----9b11---9b11-9b11------9~-|
Db|---------------------------------------|
Ab|---------------------------------------|
Eb|---------------------------------------|
[ Tab from: http://www.guitaretab.com/i/iced-earth/85451.html ]
eb|-------------------------------------------12-14----12----|
Bb|---------7-----------7---------------------------15----15-|
Gb|-7-9---7---7---9-7-----7----/14-11~--14b16----------------|
Db|-----9-------9-----9-----9--------------------------------|
Ab|----------------------------------------------------------|
Eb|----------------------------------------------------------|

eb|----------------------------------------------------|
Bb|-[15]17--(17)r15--[15]17r15-[15]17-15-[15]17r15b17~-|
Gb|----------------------------------------------------|
Db|----------------------------------------------------|
Ab|----------------------------------------------------|
Eb|----------------------------------------------------|

eb|-------20-19---------------22b24-20-19-17-19-20-|
Bb|-22b24-------22b24r22~--17----------------------|
Gb|------------------------------------------------|
Db|------------------------------------------------|
Ab|------------------------------------------------|
Eb|------------------------------------------------|

eb|-19h20r19-17-----------------------------|
Bb|-------------20-22b24--22-20-22~--15-15~-|
Gb|-----------------------------------------|
Db|-----------------------------------------|
Ab|-----------------------------------------|
Eb|-----------------------------------------|

eb|--------------12-------------12-----------------------|
Bb|-(15)\-----------12-15--------------------------------|
Gb|---------7/14----------14b16----[14]16r14p12----12-14-|
Db|---------------------------------------------14-------|
Ab|------------------------------------------------------|
Eb|------------------------------------------------------|

eb|-------------------------------12-15-14p12-------|
Bb|----------------12-15----12-15-------------12-15-|
Gb|-12~------------------14-------------------------|
Db|------14-12-14~----------------------------------|
Ab|-------------------------------------------------|
Eb|-------------------------------------------------|

eb|----------12-----------------12-15-15-14-12--------------|
Bb|----12-15----15b17----(17)~-----------------15-----------|
Gb|-----------------------------------------------14-12-11~-|
Db|-14------------------------------------------------------|
Ab|---------------------------------------------------------|
Eb|---------------------------------------------------------|


Solo fades out, keep improvising in Eb Aeolian

---------------------------------------------------------------

9. VALLEY FORGE
Tuning: Eb


Riff 1
Guitar 1 (6 string acoustic)
eb|-0------0------0------0------------|
Bb|-0------0------0------0------------|
Gb|-5----5-4----4-2----2-2------------|
Db|-7----7-5----5-3----3-2------------|
Ab|---------------------------------0-|
Eb|---------------------------0-2-3---|
    "Close your eyes..."

Final time:
eb|-0------0------0------0--|
Bb|-0------0------0------0--|
Gb|-5----5-4----4-2----2-2--|
Db|-7----7-5----5-3----3-2--|
Ab|-------------------------|
Eb|-------------------------|
    "Yet in his eyes..."


Guitar 2 (Acoustic)
eb|-------------------------------|
Bb|-------------------------------|
Gb|-------------------------------|
Db|-------------------------------|
Ab|-0-000-000-000-000-000-000-...-|
Eb|-------------------------------|
    * *** *** *** *** *** ***


Lead into next section:
eb|-------|
Bb|-------|
Gb|-------|
Db|-------|
Ab|-2-4-5-|
Eb|-0-2-3-|
    * * *
   "Would he..."


Riff 2 (Distortion)
eb|--------------------------|
Bb|--------------------------|
Gb|--------------------------|
Db|-2------------------------|
Ab|-0----0-0-0-0-0-0-0-0-0-0-|
Eb|--------------------------|
         * * * * * * * * * *
  "...look upon us..."
eb|--------------------------------------|
Bb|--------------------------------------|
Gb|-9-7---5------------/9-7----7---------|
Db|-7-5---3------------/7-5----5---------|
Ab|-----0------0-0-0-0---------------4-5-|
Eb|------------------------------000-2-3-|
        *      * * * *           *** * *
   "...anger and disgust..."

Final time:
eb|--------------------------|
Bb|--------------------------|
Gb|--------------------------|
Db|-2------------------------|
Ab|-0----0-0-0-0-0-0-0-0-0-0-|
Eb|--------------------------|
         * * * * * * * * * *
   "...complanceny..."
eb|------------------------------------------|
Bb|------------------------------------------|
Gb|-9-7---5------------/9-7----7-------------|
Db|-7-5---3------------/7-5----5-------------|
Ab|-----0------0-0-0-0---------------4-5-7-7-|
Eb|------------------------------000-2-3-5-5-|
        *      * * * *           *** * * * *
   "...our greed..."


Play Riff 1   "Standing barefoot..."


Lead into next section:
eb|-------|
Bb|-------|
Gb|-------|
Db|-------|
Ab|-2-4-5-|
Eb|-0-2-3-|
    * * *
   "Would he..."


Riff 2a (Distortion)
eb|--------------------------|
Bb|--------------------------|
Gb|--------------------------|
Db|-2------------------------|
Ab|-0----0-0-0-0-0-0-0-0-0-0-|
Eb|--------------------------|
         * * * * * * * * * *
   "...look upon us..."
eb|--------------------------------------|
Bb|--------------------------------------|
Gb|-9-7---5------------/9-7----7---------|
Db|-7-5---3------------/7-5----5---------|
Ab|-----0------0-0-0-0---------------4-5-|
Eb|------------------------------000-2-3-|
        *      * * * *           *** * *
   "...anger and disgust..."



Riff 3 (Solo Rhythm)
eb|----------------------------------|
Bb|----------------------------------|
Gb|----------------------------------|
Db|-2-2-----------------------5-5----|
Ab|-0-0--0-000-000-000-000-00-3-2-00-|
Eb|----------------------------------|
         * *** *** *** *** **     **
eb|----------------------------------|
Bb|----------------------------------|
Gb|----------------------------------|
Db|---------------------------5-5----|
Ab|-5-5-----------------------3-2-00-|
Eb|-3-3--3-333-333-333-333-33--------|
         * *** *** *** *** **     **
eb|----------------------------------|
Bb|----------------------------------|
Gb|----------------------------------|
Db|---------------------------5-5----|
Ab|-3-3-----------------------3-2-00-|
Eb|-1-1--1-111-111-111-111-11--------|
         * *** *** *** *** **     **
eb|---------------------------------|
Bb|---------------------------------|
Gb|---------------------------------|
Db|-2-2-----------------------------|
Ab|-0-0--0-000-000-000-000-00---4-5-|
Eb|---------------------------0-2-3-|
         * *** *** *** *** ** * * *
eb|----------------------------------|
Bb|----------------------------------|
Gb|----------------------------------|
Db|-2-2-----------------------5-5----|
Ab|-0-0--0-000-000-000-000-00-3-2-00-|
Eb|----------------------------------|
         * *** *** *** *** **     **
eb|----------------------------------|
Bb|----------------------------------|
Gb|----------------------------------|
Db|---------------------------5-5----|
Ab|-5-5-----------------------3-2-00-|
Eb|-3-3--3-333-333-333-333-33--------|
         * *** *** *** *** **     **
eb|----------------------------------|
Bb|----------------------------------|
Gb|----------------------------------|
Db|---------------------------5-5----|
Ab|-3-3-----------------------3-2-00-|
Eb|-1-1--1-111-111-111-111-11--------|
         * *** *** *** *** **     **
eb|-----------------------------------|
Bb|-----------------------------------|
Gb|-----------------------------------|
Db|-2-2-------------------------------|
Ab|-0-0--0-000-000-000-000-00---4-5-7-|
Eb|---------------------------0-2-3-5-|
         * *** *** *** *** ** * * * *


Solo
eb|----------------------------10-12h13-12p10-12~~-|
Bb|----------------------10-13---------------------|
Gb|-9h10p9p7-9~--------9---------------------------|
Db|------------------------------------------------|
Ab|------------------------------------------------|
Eb|------------------------------------------------|

eb|-----------------------------------------------------|
Bb|-----------------------------------------------------|
Gb|-----------------------------------------15-12-------|
Db|-----------------------------14-12-------------14-12-|
Ab|-----12-10-------15-14-12----------15-14-------------|
Eb|-10--------12-10----------15-------------------------|
     *   *  *  *  *  *  *  *  *  *  *  *  *  *  *  *
eb|-------------------------17-15-------20-19-17--------|
Bb|-13-12-------17-15-------------17-15----------20-22~-|
Gb|-------14-12-------17-16-----------------------------|
Db|-----------------------------------------------------|
Ab|-----------------------------------------------------|
Eb|-----------------------------------------------------|
           *  *        *  *
eb|-------13-12-10----------------15-13-12----------|
Bb|-10-13----------13-12-10-12-15----------15-13-12-|
Gb|-------------------------------------------------|
Db|-------------------------------------------------|
Ab|-------------------------------------------------|
Eb|-------------------------------------------------|

eb|-------17-20-19-17----19-17~--|
Bb|----18-------------20---------|
Gb|-17---------------------------|
Db|------------------------------|
Ab|------------------------------|
Eb|------------------------------|

eb|-------------------------------------|
Bb|-------------------------------------|
Gb|-------------------------------------|
Db|-------------------------------------|
Ab|-------------------------------------|
Eb|-------------------------------------|

eb|-------------------------------------|
Bb|-------------------------------------|
Gb|-------------------------------------|
Db|-------------------------------------|
Ab|-------------------------------------|
Eb|-------------------------------------|

eb|----------------------------------------------------|
Bb|----------------------------------------17-16-17-13-|
Gb|----------------------------17-16h17-14-------------|
Db|-------------------14\13-14-------------------------|
Ab|-12p11-12-15-14h15----------------------------------|
Eb|----------------------------------------------------|

eb|-17-16-17----20-19-20-17-20----------|
Bb|----------17-------------------------|
Gb|-------------------------------------|
Db|-------------------------------------|
Ab|-------------------------------------|
Eb|-------------------------------------|

eb|-------------------------------------|
Bb|-------------------------------------|
Gb|-------------------------------------|
Db|-------------------------------------|
Ab|-------------------------------------|
Eb|-------------------------------------|

eb|-------------------------------------|
Bb|-------------------------------------|
Gb|-------------------------------------|
Db|-------------------------------------|
Ab|-------------------------------------|
Eb|-------------------------------------|

eb|-------------------------------------|
Bb|-------------------------------------|
Gb|-------------------------------------|
Db|-------------------------------------|
Ab|-------------------------------------|
Eb|-------------------------------------|

eb|-------------------------------------|
Bb|-------------------------------------|
Gb|-------------------------------------|
Db|-------------------------------------|
Ab|-------------------------------------|
Eb|-------------------------------------|

eb|-----------------------------------------|
Bb|-----------------------------------------|
Gb|------10-9-7-------------12-10-9----9-10-|
Db|-7-10--------10-9-7-9-12---------12------|
Ab|-----------------------------------------|
Eb|-----------------------------------------|

eb|-------13-12-10----------------15-13-12----12-13-|
Bb|-10-13----------13-12-10-12-15----------15-------|
Gb|-------------------------------------------------|
Db|-------------------------------------------------|
Ab|-------------------------------------------------|
Eb|-------------------------------------------------|

Harmony ending:
Guitar 1
eb|-----------------------------|
Bb|-----------------------------|
Gb|-14~~-----------14b16r14-----|
Db|-------14~--14-----------14~-|
Ab|-----------------------------|
Eb|-----------------------------|

Guitar 2
eb|-20~---20~-------------------|
Bb|------------17-22b24r22-17~--|
Gb|-----------------------------|
Db|-----------------------------|
Ab|-----------------------------|
Eb|-----------------------------|

Guitar 3
eb|-----------------------------|
Bb|-17~~------------------------|
Gb|-------14~-----14b16r14------|
Db|-----------------------------|
Ab|------------15----------15~--|
Eb|-----------------------------|

End Solo



Riff 4 (Solo Rhythm)
Guitar 1                                                  x3
eb|--------------------------------------------------------|
Bb|--------------------------------------------------------|
Gb|--------------------------------------------------------|
Db|--------------------------------------------------------|
Ab|-7--777-5-3-5--3-2------5/7-7----7-----5/7-7----7-------|
Eb|----------------------0-3/5-5-00-5--00-3/5-5-00-5----00-|
       ***               *       **    **       **      **
eb|----------------------------------------------------------|
Bb|----------------------------------------------------------|
Gb|----------------------------------------------------------|
Db|----------------------------------------------------------|
Ab|-7--777-5-3-5--3-2------5/7-7----7-----5/7-7----7-------7-|
Eb|----------------------0-3/5-5-00-5--00-3/5-5-00-5----00-5-|
       ***               *       **    **       **      **

Guitar 2                                                  x3
eb|--------------------------------------------------------|
Bb|--------------------------------------------------------|
Gb|--------------------------------------------------------|
Db|-5--555-4-2-4--2-0--------------------------------------|
Ab|------------------------5/7-7----7-----5/7-7----7-------|
Eb|----------------------0-3/5-5-00-5--00-3/5-5-00-5----00-|
       ***               *       **    **       **      **
eb|----------------------------------------------------------|
Bb|----------------------------------------------------------|
Gb|----------------------------------------------------------|
Db|-5--555-4-2-4--2-0----------------------------------------|
Ab|------------------------5/7-7----7-----5/7-7----7-------7-|
Eb|----------------------0-3/5-5-00-5--00-3/5-5-00-5----00-5-|
       ***               *       **    **       **      **


Solo
eb|-------------------------------------|
Bb|-------------------------------------|
Gb|-------------------------------------|
Db|-------------------------------------|
Ab|-------------------------------------|
Eb|-------------------------------------|

eb|-------------------------------------|
Bb|-------------------------------------|
Gb|-------------------------------------|
Db|-------------------------------------|
Ab|-------------------------------------|
Eb|-------------------------------------|

eb|-------------------------------------|
Bb|-------------------------------------|
Gb|-------------------------------------|
Db|-------------------------------------|
Ab|-------------------------------------|
Eb|-------------------------------------|

eb|-------------------------------------|
Bb|-------------------------------------|
Gb|-------------------------------------|
Db|-------------------------------------|
Ab|-------------------------------------|
Eb|-------------------------------------|

End Solo


Play Riff 1   "It's time for us..."


Guitar fill over Riff 1
eb|------------------------------|
Bb|------------------------------|
Gb|------------------------------|
Db|---[fade in]-7----(7)----(7)--|
Ab|------------------------------|
Eb|------------------------------|

End Guitar fill


Lead into next section:
eb|-------|
Bb|-------|
Gb|-------|
Db|-------|
Ab|-2-4-5-|
Eb|-0-2-3-|
    * * *
   "Would he..."


Play Riff 2a   "...look upon us..."


Guitar fill over Riff 2
eb|-------15----13-12-10-12~~-|
Bb|-------15------------------|
Gb|-14-14---------------------|
Db|---------------------------|
Ab|---------------------------|
Eb|---------------------------|

eb|------------------------------------------|
Bb|-15b17----15b17r15-13-15~----12~--13-10~~-|
Gb|------------------------------------------|
Db|------------------------------------------|
Ab|------------------------------------------|
Eb|------------------------------------------|

eb|-------------------------------------|
Bb|-------------------------------------|
Gb|-------------------------------------|
Db|-------------------------------------|
Ab|-------------------------------------|
Eb|-------------------------------------|

eb|-------------------------------------|
Bb|-------------------------------------|
Gb|-------------------------------------|
Db|-------------------------------------|
Ab|-------------------------------------|
Eb|-------------------------------------|

eb|-------------------------------------|
Bb|-------------------------------------|
Gb|-------------------------------------|
Db|-------------------------------------|
Ab|-------------------------------------|
Eb|-------------------------------------|

eb|-------------------------------------|
Bb|-------------------------------------|
Gb|-------------------------------------|
Db|-------------------------------------|
Ab|-------------------------------------|
Eb|-------------------------------------|

End guitar fill


Riff 3a (Solo Rhythm)
eb|----------------------------------|
Bb|----------------------------------|
Gb|----------------------------------|
Db|-2-2-----------------------5-5----|
Ab|-0-0--0-000-000-000-000-00-3-2-00-|
Eb|----------------------------------|
         * *** *** *** *** **     **
eb|----------------------------------|
Bb|----------------------------------|
Gb|----------------------------------|
Db|---------------------------5-5----|
Ab|-5-5-----------------------3-2-00-|
Eb|-3-3--3-333-333-333-333-33--------|
         * *** *** *** *** **     **
eb|----------------------------------|
Bb|----------------------------------|
Gb|----------------------------------|
Db|---------------------------5-5----|
Ab|-3-3-----------------------3-2-00-|
Eb|-1-1--1-111-111-111-111-11--------|
         * *** *** *** *** **     **
eb|-----------------------------------|
Bb|-----------------------------------|
Gb|-----------------------------------|
Db|-2-2-------------------------------|
Ab|-0-0--0-000-000-000-000-00---4-5-7-|
Eb|---------------------------0-2-3-5-|
         * *** *** *** *** ** * * *


Solo
Guitar 1
eb|-------------------------------|
Bb|-------------------------------|
Gb|-------------------------------|
Db|-------------------10-9h10-7~--|
Ab|-------------7\6-7-------------|
Eb|-5p4-5-8-7h8-------------------|

eb|---------------------------|
Bb|---------------------------|
Gb|---------------------------|
Db|-7~--------(7)--------(7)--|
Ab|---------------------------|
Eb|---------------------------|

eb|------------------------------------|
Bb|------------------------------------|
Gb|------------------------------------|
Db|-----------------------10-9-10-12~--|
Ab|---------------10p9-10--------------|
Eb|-7p6-7-10-9/10----------------------|

eb|------------------------------|
Bb|------------------------------|
Gb|------------------------------|
Db|-12~--------(12)--------(12)--|
Ab|------------------------------|
Eb|------------------------------|

eb|------------------------------------|
Bb|------------------------------------|
Gb|------------------------------------|
Db|------------------------------------|
Ab|-----8-7-5------------10-8-7----7-8-|
Eb|-5-8-------8-7-5-7-10--------10-----|

eb|----------------------------------------|
Bb|----------------------------------------|
Gb|------10-9-7-------------12-10-9----9/--|
Db|-7-10--------10-9-7-9-12---------12-----|
Ab|----------------------------------------|
Eb|----------------------------------------|

eb|-------13-12-10----------------15-13-12----------|
Bb|-10-13----------13-12-10-12-15----------15-13-12-|
Gb|-------------------------------------------------|
Db|-------------------------------------------------|
Ab|-------------------------------------------------|
Eb|-------------------------------------------------|

eb|-------17-15-13----------------18-17-15----15-17~---|
Bb|-13-17----------17-15-13-15-20----------18----------|
Gb|----------------------------------------------------|
Db|----------------------------------------------------|
Ab|----------------------------------------------------|
Eb|----------------------------------------------------|


Guitar 2
eb|-------------------------------------|
Bb|-------------------------------------|
Gb|---------[Guitar 1 only]-------------|
Db|-------------------------------------|
Ab|-------------------------------------|
Eb|-------------------------------------|

eb|-12p11-12--------------------------------|
Bb|----------13-12h13-----------------------|
Gb|-------------------14p12-14--------------|
Db|----------------------------14-13h14-10~-|
Ab|-----------------------------------------|
Eb|-----------------------------------------|

eb|---------------------------|
Bb|---------------------------|
Gb|---------------------------|
Db|-9~--------(9)--------(9)--|
Ab|---------------------------|
Eb|---------------------------|

eb|-15p14-15-10\9-10----------------------|
Bb|------------------12-11-12-------------|
Gb|---------------------------12-11-12----|
Db|------------------------------------9~-|
Ab|---------------------------------------|
Eb|---------------------------------------|

eb|-------------------------------------|
Bb|-------------------------------------|
Gb|-------------------------------------|
Db|-------------------------------------|
Ab|-------------------------------------|
Eb|-------------------------------------|

eb|-------------------------------------|
Bb|-------------------------------------|
Gb|-------------------------------------|
Db|-------------------------------------|
Ab|-------------------------------------|
Eb|-------------------------------------|

eb|-------------------------------------|
Bb|-------------------------------------|
Gb|-------------------------------------|
Db|-------------------------------------|
Ab|-------------------------------------|
Eb|-------------------------------------|

End Solo

-----------------------------------------------------

10. WATERLOO

Tuning: Eb


Intro

Guitar 1
eb|-----------------------------|
Bb|-----------------------------|
Gb|-------12--12--------11--11--|
Db|--------9---9---------9---9--|
Ab|--------7---7---------7---7--|
Eb|-0-000---------0-000---------|
    * ***         * ***
eb|-------------------------------|
Bb|-------------------------------|
Gb|-------12--12--------11--12-11-|
Db|--------9---9---------9---9--9-|
Ab|--------7---7---------7---7--7-|
Eb|-0-000---------0-000-----------|
    * ***         * ***

Repeat the two bars above, then:
eb|--------------------------------------|
Bb|--------------------------------------|
Gb|--------------------------------------|
Db|-7------------5-----------------------|
Ab|-5--------5-0-3--------0-3-2--------2-|
Eb|-----------------------------5-3--5---|
             * *          * * * *    *

Guitar 2
eb|-----------------------------|
Bb|-----------------------------|
Gb|---9-11-12--11-9--7~----11~--|
Db|-9---------------------------|
Ab|-----------------------------|
Eb|-----------------------------|

eb|-------------------------------------------|
Bb|-------------------------------------------|
Gb|---9-11-12--11-9--/14-12--11~-[--11-12-11]-|<--Another guitar plays
Db|-9----------------------------[9---------]-|   notes in [] while the
Ab|-------------------------------------------|   first guitar holds the
Eb|-------------------------------------------|   11 note.
                                  *  *  *  *

Repeat the two bars above, then:
eb|-------------------------------------|
Bb|-------------------------------------|
Gb|-9----11~----12-11-9-7----9~----(9)\-|
Db|-------------------------------------|
Ab|-------------------------------------|
Eb|-------------------------------------|


End Intro


Riff 1
Guitar 1
eb|-----------------------------|
Bb|-----------------------------|
Gb|-------12--12--------11--11--|
Db|--------9---9---------9---9--|
Ab|--------7---7---------7---7--|
Eb|-0-000---------0-000---------|
    * ***         * ***
eb|-------------------------------|
Bb|-------------------------------|
Gb|-------12--12--------11--12-11-|
Db|--------9---9---------9---9--9-|
Ab|--------7---7---------7---7--7-|
Eb|-0-000---------0-000-----------|
    * ***         * ***

Repeat the two bars above, then:
eb|--------------------------------------|
Bb|--------------------------------------|
Gb|--------------------------------------|
Db|-7------------5-----------------------|
Ab|-5--------5-0-3--------0-3-2--------2-|
Eb|-----------------------------5-3--5---|
             * *          * * * *    *

Guitar 2
eb|-----------------------------|
Bb|-----------------------------|
Gb|---9-11-12--11-9--7~----11~--|
Db|-9---------------------------|
Ab|-----------------------------|
Eb|-----------------------------|

eb|-------------------------------------------|
Bb|-------------------------------------------|
Gb|---9-11-12--11-9--/14-12--11~-[--11-12-11]-|<--Another guitar plays
Db|-9----------------------------[9---------]-|   notes in [] while the
Ab|-------------------------------------------|   first guitar holds the
Eb|-------------------------------------------|   11 note.
                                  *  *  *  *

Repeat the two bars above, then:
eb|-------------------------------------|
Bb|-------------------------------------|
Gb|-9----11~----12-11-9-7----9~----(9)\-|
Db|-------------------------------------|
Ab|-------------------------------------|
Eb|-------------------------------------|


Guitar 3
eb|-------------------------------|
Bb|-------10-12--10-8--7~----10~--|
Gb|----12-------------------------|
Db|-12----------------------------|
Ab|-------------------------------|
Eb|-------------------------------|

eb|---------------------------------|
Bb|-------10-12--10-8--/15-12--10~--|
Gb|----12---------------------------|
Db|-12------------------------------|
Ab|---------------------------------|
Eb|---------------------------------|

Repeat the two bars above, then:
eb|------------------------------------------|
Bb|------------------------------------------|
Gb|-12----14~----16-14-12-11----12~----(12)\-|
Db|------------------------------------------|
Ab|------------------------------------------|
Eb|------------------------------------------|



Riff 2
Guitar 1
eb|------------------------------------------|
Bb|------------------------------------------|
Gb|------------------------------------------|
Db|-9-----9-------------------12----12-11----|
Ab|-7-775-7--7-777-777-777-00-10-00-10--9-00-|
Eb|------------------------------------------|
      ***    * *** *** *** **    **       **
   "Usher in the rally..."
eb|-----------------------------------------|
Bb|-----------------------------------------|
Gb|-----------------------------------------|
Db|-7-----------------------4---------------|
Ab|-5--5-555-555-555-555-00-2--2-222-222-00-|
Eb|-----------------------------------------|
       * *** *** *** *** **    * *** *** **
   "...here again..."
eb|----------------------------------------------|
Bb|----------------------------------------------|
Gb|----------------------------------------------|
Db|-7--------------------------------------------|
Ab|-5--5-555-555---------7-----------------------|
Eb|--------------555-553-5--5-555-555-555-555-55-|
       * *** *** *** ***    * *** *** *** *** **
   "...broken, and free he..."


Guitar 2 (Slight palm mutes throughout)
eb|--------------------------------------------|
Bb|----------------------10--------------------|
Gb|-9-99----9----9-11-12----12-11-9-12-11------|
Db|------12--------------------------------12--|
Ab|--------------------------------------------|
Eb|--------------------------------------------|

eb|------------------------------------------|
Bb|------------------------------------------|
Gb|----9-11-12-11-9----12--11--9------9--11--|
Db|-12--------------12------------12---------|
Ab|------------------------------------------|
Eb|------------------------------------------|

eb|--------------------------------------|
Bb|--------------------------------------|
Gb|---------------------------9----------|
Db|-12-11---------------11-12---12-11----|
Ab|--------12--------12---------------12-|
Eb|--------------------------------------|


Guitar 3 (Slight palm mutes throughout)
eb|--------------------------------------------------|
Bb|---------------------10-12-13-12-10----12-10------|
Gb|-12-1212-11-12----12----------------12--------11--|
Db|--------------------------------------------------|
Ab|--------------------------------------------------|
Eb|--------------------------------------------------|

eb|----------------------------------------------|
Bb|-------10-12-10-------12--10--------------10--|
Gb|-11-12----------12-11---------12--11--12------|
Db|----------------------------------------------|
Ab|----------------------------------------------|
Eb|----------------------------------------------|

eb|-------------------------------------|
Bb|-------------------------------------|
Gb|-11-9---------------9-11-12-11-9-----|
Db|-------11--------11--------------11--|
Ab|-------------------------------------|
Eb|-------------------------------------|



Play Riff 1  "Foreshadowed man..."
Play Riff 2  "Quickly, the allies..."
Play Riff 1  "Foreshadowed man..."


Riff 3
eb|------------------------------|
Bb|------------------------------|
Gb|------------------------------|
Db|---------------------------3--|
Ab|---------------------------3--|
Eb|-0-00000--0-00000-00000--0----|
    * *****  * ***** *****  *
eb|------------------------------|
Bb|------------------------------|
Gb|------------------------------|
Db|---------------------------5--|
Ab|---------------------------5--|
Eb|-0-00000--0-00000-00000--0----|
    * *****  * ***** *****  *
eb|------------------------------|
Bb|------------------------------|
Gb|------------------------------|
Db|---------------------------3--|
Ab|---------------------------3--|
Eb|-0-00000--0-00000-00000--0----|
    * *****  * ***** *****  *
eb|-------------------------------|
Bb|-------------------------------|
Gb|-------------------------------|
Db|---------------------------5---|
Ab|---------------------------5---|
Eb|-0-00000--0-00000-00000--0---0-|
    * *****  * ***** *****  *   *
eb|------------------------------------|
Bb|------------------------------------|
Gb|------------------------------------|
Db|------------------------------------|
Ab|-5--------5---3--------3-2--------2-|
Eb|-5--------5-0-3------------5-3--5---|
             * *          * * *    *

Riff 4
eb|-------------------------------|
Bb|-------------------------------|
Gb|-------------------------------|
Db|-2--------4--------5--------7--|
Ab|-2--------4--------5--------7--|
Eb|-0--------2--------3--------5--|
   "Of all the wars I have waged..."



Play Riff 2  "The French force..."
Play Riff 1  "Foreshadowed man..."


Ending:
eb|-------------------------------------------------|
Bb|-------------------------------------------------|
Gb|-------------------------------------------------|
Db|-------------------------------------------------|
Ab|-2--2--2--2--2--2--2--2--4--4--4--4--4--4--4--4--|
Eb|-0--0--0--0--0--0--0--0--2--2--2--2--2--2--2--2--|
    *  *  *  *  *  *  *  *  *  *  *  *  *  *  *  *
eb|---------------------------------------------------|
Bb|---------------------------------------------------|
Gb|---------------------------------------------------|
Db|---------------------------------------------------|
Ab|-5--5--5--5--5--5--5--5--7--7--7--7--7--7--7-------|
Eb|-3--3--3--3--3--3--3--3--5--5--5--5--5--5--5--/12\-|
    *  *  *  *  *  *  *  *  *  *  *  *  *  *  *
eb|--------------------------------|
Bb|--------------------------------|
Gb|--------------------------------|
Db|---------------------------3----|
Ab|---------------------------3--2-|
Eb|-0-00000--0-00000-00000--0----0-|
    * *****  * ***** *****  *

------------------------------------------------------------

11. THE DEVIL TO PAY

Tuning: Eb


Riff 1 (12 string acoustic)
eb|------------------------------|
Bb|------------------------------|
Gb|-----9--------7------7------5-|
Db|---7--------5------4------2---|
Ab|-0--------0------0------0-----|
Eb|------------------------------|


Lead into next section: (Distortion)
eb|---------------|
Bb|---------------|
Gb|---------------|
Db|-----2-5-4---2-|
Ab|-2-5-0-3-2-5-0-|
Eb|-0-3-------3---|
    * * *     *
   "There's the devil to pay!"



Riff 2 (Distortion)
Guitar 1
eb|------------------------------------------|
Bb|------------------------------------------|
Gb|---9------7----7----5------5--------------|
Db|---7------5----4----3------2--------5-4-2-|
Ab|-0------0----0----0------0------2-5-3-2-0-|
Eb|--------------------------------0-3-------|
    *      *    *    *      *      * *

Guitar 2
eb|------------------------------------------------------|
Bb|------------------------------------------------------|
Gb|----9~---9-7----7--9----------------------------------|
Db|--7----------10-------9-10-9-7~---/12-10--9~----(9)\--|
Ab|------------------------------------------------------|
Eb|------------------------------------------------------|
                         *  * *
eb|---------------------------------------------------------|
Bb|---------------------------------------------------------|
Gb|----9~---9-7----7--9--/12--11h12p11-9~---10-9-7-9--------|
Db|--7----------10-----------------------------------10-9~\-|
Ab|-----------------------------------------------------a---|
Eb|---------------------------------------------------------|

Guitar 3
eb|----------------------------------------------------------|
Bb|----------------------------------------------------------|
Gb|-----12~--12-11----11-12----------------/10-9--7~----(7)\-|
Db|--10------------14--------12-14-12-10~--------------------|
Ab|----------------------------------------------------------|
Eb|----------------------------------------------------------|
                              *  *  *
eb|-----------------------------------------------------------------|
Bb|-----------------------------------------------------------------|
Gb|-----12~--12-11----11-12--/17--16h17p16-14~--14------------------|
Db|--10------------14------------------------------17-15-17-15-14~\-|
Ab|-------------------------------------------------------------a---|
Eb|-----------------------------------------------------------------|



Riff 3
eb|---------------------------------|
Bb|---------------------------------|
Gb|---------------------------------|
Db|---------------------------------|
Ab|-7--------------------2-5---8--7-|
Eb|-5-555-5-5-555-5-5-55-0-3-0-6--5-|
      *** * * *** * * **     *
   "The pressure's on..."
eb|----------------------------------|
Bb|----------------------------------|
Gb|----------------------------------|
Db|----------------------------------|
Ab|-7--------------------2-5---10--8-|
Eb|-5-555-5-5-555-5-5-55-0-3-0--8--6-|
      *** * * *** * * **     *
   "The Yanks must hold..."
eb|---------------------------------|
Bb|---------------------------------|
Gb|---------------------------------|
Db|---------------------------------|
Ab|-7--------------------2-5---8--7-|
Eb|-5-555-5-5-555-5-5-55-0-3-0-6--5-|
      *** * * *** * * **     *
   "Just two brigades..."
eb|-----------------------------|
Bb|-----------------------------|
Gb|-----------------------------|
Db|-----------------------------|
Ab|-7---------2------5------5-7-|
Eb|-5-555-5-5-0----0-3----0-3-5-|
      *** * *      *      *
   "Against 20,000..."


Final time:
eb|-------------------------------------|
Bb|-------------------------------------|
Gb|-------------------------------------|
Db|---------------------------2-5-4---2-|
Ab|-7---------2------5----2-5-0-3-2-5-0-|
Eb|-5-555-5-5-0----0-3----0-3-------3---|
      *** * *      *      * * *     *
   "Thousands more comin'..."


Play Riff 2   "This tragedy..."
Play Riff 3   "South of town..."
Play Riff 2   "This tragedy..."

Last time for Riff 2, use this:
Guitar 1
eb|------------------------------------------|
Bb|------------------------------------------|
Gb|---9------7----7----5------5--------------|
Db|---7------5----4----3------2--------5-4-2-|
Ab|-0------0----0----0------0------2-5-3-2-0-|
Eb|--------------------------------0-3-------|
    *      *    *    *      *      * *
eb|------------------|
Bb|------------------|
Gb|------------------|
Db|--(2)--------(2)--|
Ab|--(0)--------(0)--|
Eb|------------------|

Guitar 2
eb|-------------------------------------------------------|
Bb|-------------------------------------------------------|
Gb|----9~---9-7----7--9--/12--11h12p11-9~---10-9-7-9------|
Db|--7----------10-----------------------------------10-9-|
Ab|-------------------------------------------------------|
Eb|-------------------------------------------------------|

eb|------------------|
Bb|------------------|
Gb|------------------|
Db|---7---------(7)--|
Ab|------------------|
Eb|------------------|

Guitar 3
eb|---------------------------------------------------------------|
Bb|---------------------------------------------------------------|
Gb|-----12~--12-11----11-12--/17--16h17p16-14~--14----------------|
Db|--10------------14------------------------------17-15-17-15-14-|
Ab|---------------------------------------------------------------|
Eb|---------------------------------------------------------------|

eb|------------------|
Bb|------------------|
Gb|------------------|
Db|---14--------(14)-|
Ab|------------------|
Eb|------------------|


============================================================
Riff 4 (Interlude): 5:30-7:05

Lead into interlude:
(12 string acoustic)
eb|-------------------------------------------------|
Bb|-------0-----------0-----------0-----------0-----|
Gb|-----5---5-------5---5-------5---5-------5---5---|
Db|---7-------7---7-------7---7-------7---7-------7-|
Ab|-0-----------0-----------0-----------0-----------|
Eb|-------------------------------------------------|


Note: Each repetition either adds another guitar or adds
more notes.  So each repetition is split into sections here.
------------------------------------------------------------
Section A:

Guitar 1 (12 string acoustic)
eb|-------------------------------------------------|
Bb|-------0-----------0-----------0-----------0-----|
Gb|-----5---5-------5---5-------5---5-------5---5---|
Db|---7-------7---7-------7---5-------5---5-------5-|
Ab|-0-----------0-----------0-----------0-----------|
Eb|-------------------------------------------------|

eb|-------------------------------------------------|
Bb|-------0-----------0-----------0-----------0-----|
Gb|-----5---5-------5---5-------5---5-------5---5---|
Db|---7-------7---7-------7---5-------5---5-------5-|
Ab|-0-----------0-----------0-----------0-----------|
Eb|-------------------------------------------------|

eb|-------------------0-----------0-----------0-----|
Bb|-------0---------0---0-------0---0-------0---0---|
Gb|-----5---5-----4-----------2-----------1---------|
Db|---7-------7-5---------5-3---------3-2---------2-|
Ab|-0-----------------------------------------------|
Eb|-------------------------------------------------|

eb|-------------------------------------------------|
Bb|-------0-----------0-----------0-----------0-----|
Gb|-----5---5-------5---5-------5---5-------5---5---|
Db|---7-------7---7-------7---7-------7---7-------7-|
Ab|-0-----------0-----------0-----------0-----------|
Eb|-------------------------------------------------|

Guitar 2
eb|-------------------------------|
Bb|-------------------------------|
Gb|--------------------------7-9--|
Db|-7--9-10--7-5----7--9-10-------|
Ab|-------------------------------|
Eb|-------------------------------|

eb|-------------------------------|
Bb|-------------------------------|
Gb|-9--7---------9-7--------------|
Db|-------10--9------10-9-7--5-7--|
Ab|-------------------------------|
Eb|-------------------------------|

Guitar 3
eb|---------------------------------------|
Bb|--------------------------------15-17--|
Gb|-14--16-17--14-------14--16-17---------|
Db|---------------17----------------------|
Ab|---------------------------------------|
Eb|---------------------------------------|

eb|----------------------------------------|
Bb|-17--15----------17-15------------------|
Gb|---------17--16--------17-16-14-----14--|
Db|---------------------------------17-----|
Ab|----------------------------------------|
Eb|----------------------------------------|

End Section A.
------------------------------------------------------------
Section B:

Guitar 1 (12 string acoustic)
eb|-------------------------------------------------|
Bb|-------0-----------0-----------0-----------0-----|
Gb|-----5---5-------5---5-------5---5-------5---5---|
Db|---7-------7---7-------7---5-------5---5-------5-|
Ab|-0-----------0-----------0-----------0-----------|
Eb|-------------------------------------------------|

eb|-------------------------------------------------|
Bb|-------0-----------0-----------0-----------0-----|
Gb|-----5---5-------5---5-------5---5-------5---5---|
Db|---7-------7---7-------7---5-------5---5-------5-|
Ab|-0-----------0-----------0-----------0-----------|
Eb|-------------------------------------------------|

eb|-------------------0-----------0-----------0-----|
Bb|-------0---------0---0-------0---0-------0---0---|
Gb|-----5---5-----4-----------2-----------1---------|
Db|---7-------7-5---------5-3---------3-2---------2-|
Ab|-0-----------------------------------------------|
Eb|-------------------------------------------------|

eb|-------------------------------------------------|
Bb|-------0-----------0-----------0-----------0-----|
Gb|-----5---5-------5---5-------5---5-------5---5---|
Db|---7-------7---7-------7---7-------7---7-------7-|
Ab|-0-----------0-----------0-----------0-----------|
Eb|-------------------------------------------------|

Guitar 2
eb|--------------------------------------------------|
Bb|--------------------------------------------------|
Gb|---------------------------------------7-9-----9--|
Db|-7--9-10-9-10-7-5----5----7--9-10-9-10------10----|
Ab|-------------------7------------------------------|
Eb|--------------------------------------------------|

eb|-------------------------------------|
Bb|-------------------------------------|
Gb|-9--7---------9-7--------------------|
Db|-------10--9------10-9-7-7-7-7--5-7--|
Ab|-------------------------------------|
Eb|-------------------------------------|

Guitar 3
eb|-------------------------------------------------|
Bb|-------------------------------------------------|
Gb|-5--7-9-7-9-5-4----4----5--7-9-7-9--10-12--9-12--|
Db|-----------------5-------------------------------|
Ab|-------------------------------------------------|
Eb|-------------------------------------------------|

eb|---------------------------------------|
Bb|---------------------------------------|
Gb|-12--10--9--7--12-10-9-7-5-5-5-5--4-5--|
Db|---------------------------------------|
Ab|---------------------------------------|
Eb|---------------------------------------|

Guitar 4
eb|--------------------------------------------------------------|
Bb|-------------------------------------------------15-17-----17-|
Gb|-14--16-17-16-17-14--------------14--16-17-16-17--------17----|
Db|--------------------17--14-17---------------------------------|
Ab|--------------------------------------------------------------|
Eb|--------------------------------------------------------------|

eb|-------------------------------------------------|
Bb|-17--15----------17-15---------------------------|
Gb|---------17--16--------17-16-14-14-14-14-----14--|
Db|------------------------------------------17-----|
Ab|-------------------------------------------------|
Eb|-------------------------------------------------|

End Section B.
------------------------------------------------------------
Section C:

Guitar 1 (12 string acoustic)
eb|-------------------------------------------------|
Bb|-------0-----------0-----------0-----------0-----|
Gb|-----5---5-------5---5-------5---5-------5---5---|
Db|---7-------7---7-------7---5-------5---5-------5-|
Ab|-0-----------0-----------0-----------0-----------|
Eb|-------------------------------------------------|

eb|-------------------------------------------------|
Bb|-------0-----------0-----------0-----------0-----|
Gb|-----5---5-------5---5-------5---5-------5---5---|
Db|---7-------7---7-------7---5-------5---5-------5-|
Ab|-0-----------0-----------0-----------0-----------|
Eb|-------------------------------------------------|

eb|-------------------0-----------0-----------0-----|
Bb|-------0---------0---0-------0---0-------0---0---|
Gb|-----5---5-----4-----------2-----------1---------|
Db|---7-------7-5---------5-3---------3-2---------2-|
Ab|-0-----------------------------------------------|
Eb|-------------------------------------------------|

eb|-------------------------------------------------|
Bb|-------0-----------0-----------0-----------0-----|
Gb|-----5---5-------5---5-------5---5-------5---5---|
Db|---7-------7---7-------7---7-------7---7-------7-|
Ab|-0-----------0-----------0-----------0-----------|
Eb|-------------------------------------------------|

Guitar 2
eb|--------------------------------------------------|
Bb|--------------------------------------------------|
Gb|---------------------------------------7-9-----9--|
Db|-7--9-10-9-10-7-5----5----7--9-10-9-10------10----|
Ab|-------------------7------------------------------|
Eb|--------------------------------------------------|

eb|----------------------------------|
Bb|----------------------------------|
Gb|-9--9-7----7--7-9-7---------------|
Db|--------10----------10--10-9-7-9--|
Ab|----------------------------------|
Eb|----------------------------------|

eb|------------------------|
Bb|------------------------|
Gb|-9-7--------------------|
Db|-----10-9-7-7-7-7--5-7--|
Ab|------------------------|
Eb|------------------------|

Guitar 3
eb|-------------------------------------------------|
Bb|-------------------------------------------------|
Gb|-5--7-9-7-9-5-4----4----5--7-9-7-9--10-12--9-12--|
Db|-----------------5-------------------------------|
Ab|-------------------------------------------------|
Eb|-------------------------------------------------|

eb|--------------------------------------|
Bb|--------------------------------------|
Gb|-12--12-10-9-10--10-12-10-9--9-7-5-7--|
Db|--------------------------------------|
Ab|--------------------------------------|
Eb|--------------------------------------|

eb|-------------------------|
Bb|-------------------------|
Gb|-12-10-9-7-5-5-5-5--4-5--|
Db|-------------------------|
Ab|-------------------------|
Eb|-------------------------|

Guitar 4
eb|--------------------------------------------------------------|
Bb|-------------------------------------------------15-17-----17-|
Gb|-14--16-17-16-17-14--------------14--16-17-16-17--------17----|
Db|--------------------17--14-17---------------------------------|
Ab|--------------------------------------------------------------|
Eb|--------------------------------------------------------------|

eb|--------------------------------------------|
Bb|-17--17-15----15--15-17-15------------------|
Gb|-----------17--------------17--17-16-14-16--|
Db|--------------------------------------------|
Ab|--------------------------------------------|
Eb|--------------------------------------------|

eb|---------------------------------|
Bb|-17-15---------------------------|
Gb|-------17-16-14-14-14-14-----14--|
Db|--------------------------17-----|
Ab|---------------------------------|
Eb|---------------------------------|

Guitar 5
eb|-------------------------------|
Bb|-13--15-17-15-17-13-12-----12--|
Gb|------------------------12-----|
Db|-------------------------------|
Ab|-------------------------------|
Eb|-------------------------------|

eb|------------------13-15-----15--|
Bb|-13--15-17-15-17---------17-----|
Gb|--------------------------------|
Db|--------------------------------|
Ab|--------------------------------|
Eb|--------------------------------|

eb|-15--15-13----13--13-15-13------------------|
Bb|-----------17--------------17--17-15-13-15--|
Gb|--------------------------------------------|
Db|--------------------------------------------|
Ab|--------------------------------------------|
Eb|--------------------------------------------|

eb|-15-13---------------------------|
Bb|-------17-15-13-13-13-13--12-13--|
Gb|---------------------------------|
Db|---------------------------------|
Ab|---------------------------------|
Eb|---------------------------------|

End Section C.
------------------------------------------------------------
Section D:

Guitar 1 (12 string acoustic)
eb|-------------------------------------------------|
Bb|-------0-----------0-----------0-----------0-----|
Gb|-----5---5-------5---5-------5---5-------5---5---|
Db|---7-------7---7-------7---5-------5---5-------5-|
Ab|-0-----------0-----------0-----------0-----------|
Eb|-------------------------------------------------|

eb|-------------------------------------------------|
Bb|-------0-----------0-----------0-----------0-----|
Gb|-----5---5-------5---5-------5---5-------5---5---|
Db|---7-------7---7-------7---5-------5---5-------5-|
Ab|-0-----------0-----------0-----------0-----------|
Eb|-------------------------------------------------|

eb|-------------------0-----------0-----------0-----|
Bb|-------0---------0---0-------0---0-------0---0---|
Gb|-----5---5-----4-----------2-----------1---------|
Db|---7-------7-5---------5-3---------3-2---------2-|
Ab|-0-----------------------------------------------|
Eb|-------------------------------------------------|

eb|-------------------------------------------------|
Bb|-------0-----------0-----------0-----------0-----|
Gb|-----5---5-------5---5-------5---5-------5---5---|
Db|---7-------7---7-------7---7-------7---7-------7-|
Ab|-0-----------0-----------0-----------0-----------|
Eb|-------------------------------------------------|

Guitar 2
eb|------------------------------|
Bb|------------------------------|
Gb|------------------------------|
Db|-7-7-7-7--9-10-9-10-7-5----5--|
Ab|-------------------------7----|
Eb|------------------------------|

eb|--------------------------------------|
Bb|--------------------------------------|
Gb|--------------------7-9-----9-------7-|
Db|-7-7-7-7--9-10-9-10------10----9-10---|
Ab|--------------------------------------|
Eb|--------------------------------------|

eb|----------------------------------------------|
Bb|----------------------------------------------|
Gb|-9--9-9-7----7--7-9-7-----------------------7-|
Db|----------10----------10--10-10-9-7-9--9-10---|
Ab|----------------------------------------------|
Eb|----------------------------------------------|

eb|------------------------------|
Bb|------------------------------|
Gb|-9-7--------------------------|
Db|-----10-9-7-7-7-7--5-7----(7)-|
Ab|------------------------------|
Eb|------------------------------|

Guitar 3
eb|----------------------------|
Bb|----------------------------|
Gb|-5-5-5-5--7-9-7-9-5-4----4--|
Db|-----------------------5----|
Ab|----------------------------|
Eb|----------------------------|

eb|----------------------------------------|
Bb|----------------------------------------|
Gb|-5-5-5-5--7-9-7-9--10-12--9-12-----9-10-|
Db|--------------------------------12------|
Ab|----------------------------------------|
Eb|----------------------------------------|

eb|--------------------------------------------------|
Bb|--------------------------------------------------|
Gb|-12--12-12-10-9-10--10-12-10-9--9-9-7-5-7--7-9-10-|
Db|--------------------------------------------------|
Ab|--------------------------------------------------|
Eb|--------------------------------------------------|

eb|-------------------------------|
Bb|-------------------------------|
Gb|-12-10-9-7-5-5-5-5--4-5----(5)-|
Db|-------------------------------|
Ab|-------------------------------|
Eb|-------------------------------|

Guitar 4
eb|----------------------------------------|
Bb|----------------------------------------|
Gb|-14-14-14-14--16-17-16-17-14------------|
Db|-----------------------------17--14-17--|
Ab|----------------------------------------|
Eb|----------------------------------------|

eb|--------------------------------------------------|
Bb|---------------------------15-17-----17--------15-|
Gb|-14-14-14-14--16-17-16-17---------17-----16-17----|
Db|--------------------------------------------------|
Ab|--------------------------------------------------|
Eb|--------------------------------------------------|

eb|-----------------------------------------------------------|
Bb|-17--17-17-15----15--15-17-15---------------------------15-|
Gb|--------------17--------------17--17-17-16-14-16--16-17----|
Db|-----------------------------------------------------------|
Ab|-----------------------------------------------------------|
Eb|-----------------------------------------------------------|

eb|----------------------------------------|
Bb|-17-15----------------------------------|
Gb|-------17-16-14-14-14-14-----14----(14)-|
Db|--------------------------17------------|
Ab|----------------------------------------|
Eb|----------------------------------------|

Guitar 5
eb|----------------------------------------|
Bb|-13-13-13-13--15-17-15-17-13-12-----12--|
Gb|---------------------------------12-----|
Db|----------------------------------------|
Ab|----------------------------------------|
Eb|----------------------------------------|

eb|---------------------------13-15-----15--------13-|
Bb|-13-13-13-13--15-17-15-17---------17-----15-17----|
Gb|--------------------------------------------------|
Db|--------------------------------------------------|
Ab|--------------------------------------------------|
Eb|--------------------------------------------------|

eb|-15--15-15-13----13--13-15-13---------------------------13-|
Bb|--------------17--------------17--17-17-15-13-15--15-17----|
Gb|-----------------------------------------------------------|
Db|-----------------------------------------------------------|
Ab|-----------------------------------------------------------|
Eb|-----------------------------------------------------------|

eb|-15-13----------------------------------|
Bb|-------17-15-13-13-13-13--12-13----(13)-|
Gb|----------------------------------------|
Db|----------------------------------------|
Ab|----------------------------------------|
Eb|----------------------------------------|

End Section D.
------------------------------------------------------------

Interlude ends with only Guitar 1 still playing:
(12 string acoustic)                   x3
eb|-------------------------------------|
Bb|-------0-----------0-----------0-----|
Gb|-----5---5-------5---5-------5---5---|
Db|---7-------7---7-------7---7-------7-|
Ab|-0-----------0-----------0-----------|
Eb|-------------------------------------|

End Interlude.
============================================================


Riff 5 (Note: First chord is under the cannon fire)
eb|------------------------------|
Bb|------------------------------|
Gb|---5------5----4------2----1--|
Db|---7------5----5------3----2--|
Ab|-0------0----0------0----0----|
Eb|------------------------------|
    *      *    *      *    *


Riff 6
eb|-------------------------------|
Bb|-------------------------------|
Gb|-----5-5---------5-5---4----4--|
Db|-----7-7---------5-5---5----5--|
Ab|-0-0-----0-0-000-----0----0----|
Eb|-------------------------------|
    * *     * * ***     *    *
eb|-------------------------------|
Bb|-------------------------------|
Gb|-----2-2---------1-1---1----1--|
Db|-----3-3---------2-2---2----2--|
Ab|-0-0-----0-0-000-----0----0----|
Eb|-------------------------------|
    * *     * * ***     *    *


Riff 7
eb|--------------------------------|
Bb|--------------------------------|
Gb|--------------------------------|
Db|-----9\----------7--------------|
Ab|-----7\----------5--5-4-4-4-4-4-|
Eb|-0-0-----0-0-000----------------|
    * *     * * ***    * * * * * *
eb|-------------------------------|
Bb|-------------------------------|
Gb|-------------------------------|
Db|-----5----------5--------------|
Ab|-3-3-3--3-3-333-2--2-2-2-2-2-2-|
Eb|-------------------------------|
    * *    * * ***    * * * * * *


Play Riff 6
Play Riff 7


Riff 8
Guitar 1                                                x2
eb|------------------------------------------------------|
Bb|------------------------------------------------------|
Gb|------------------------------------------------------|
Db|-------12------10------9----5--------12------10----7--|
Ab|-0-0-0--0--0-0--0--0-0-0--0-0--0-0-0--0--0-0--0--0-0--|
Eb|------------------------------------------------------|
    * * *     * *     * *    *    * * *     * *     *
                                                        x2
eb|------------------------------------------------------|
Bb|------------------------------------------------------|
Gb|------------------------------------------------------|
Db|------------------------------------------------------|
Ab|-------12------10------9----5--------12------10----7--|
Eb|-0-0-0--0--0-0--0--0-0-0--0-0--0-0-0--0--0-0--0--0-0--|
    * * *     * *     * *    *    * * *     * *     *

Guitar 2
eb|------------------------------------|
Bb|------------------------------------|
Gb|--------7~--------------------------|
Db|-7-9-10-----10-9-10~--9-7-9~--7-5~--| ---|
Ab|------------------------------------|    |
Eb|------------------------------------|    |
                                            |
eb|----------------------------|            |--> Play 2x
Bb|----------------------------|            |
Gb|--------7~------------------|            |
Db|-7-9-10-----10-9-10~--9-7~--| -----------|
Ab|----------------------------|
Eb|----------------------------|

eb|------------------------------------|
Bb|------------------------------------|
Gb|------------------------------------|
Db|--------7~--------------------------| ---|
Ab|-7-9-10-----10-9-10~--9-7-9~--7-5~--|    |
Eb|------------------------------------|    |
                                            |
eb|----------------------------|            |--> Play 2x
Bb|----------------------------|            |
Gb|----------------------------|            |
Db|--------7~------------------| -----------|
Ab|-7-9-10-----10-9-10~--9-7~--|
Eb|----------------------------|


Guitar 3
eb|-------------------------------------|
Bb|-------------------------------------|
Gb|----7-9-10~--9-7-9~--7----7~---------|
Db|-10--------------------10-----10-9~--| ---|
Ab|-------------------------------------|    |
Eb|-------------------------------------|    |
                                             |
eb|----------------------------|             |--> Play 2x
Bb|----------------------------|             |
Gb|----7-9-10~--9-7-9~--7------|             |
Db|-10--------------------10~--| ------------|
Ab|----------------------------|
Eb|----------------------------|

eb|-------------------------------------|
Bb|-------------------------------------|
Gb|-------------------------------------|
Db|----7-9-10~--9-7-9~--7----7~---------| ---|
Ab|-10--------------------10-----10-9~--|    |
Eb|-------------------------------------|    |
                                             |
eb|----------------------------|             |--> Play 2x
Bb|----------------------------|             |
Gb|----------------------------|             |
Db|----7-9-10~--9-7-9~--7------| ------------|
Ab|-10--------------------10~--|
Eb|----------------------------|



Riff 8a
Guitar 1
eb|----------------------------------|
Bb|----------------------------------|
Gb|----------------------------------|
Db|----------------------------------| ----|
Ab|----------------------------------|     |
Eb|-5-5-5-5-5-5-5-5-5-5-5-5-5-5-5-55-|     |
    * * * * * * * * * * * * * * * **       |
eb|----------------------------------|     |--> Play 2x
Bb|----------------------------------|     |
Gb|----------------------------------|     |
Db|----------------------------------| ----|
Ab|----------------------------------|
Eb|-5-5-5-5-5-5-5-5-5-5-5-555-5-5555-|
    * * * * * * * * * * * *** * ****

eb|----------------------------------|
Bb|----------------------------------|
Gb|----------------------------------|
Db|----------------------------------| ----|
Ab|----------------------------------|     |
Eb|-0-0-0-0-0-0-0-0-0-0-0-0-0-0-0-00-|     |
    * * * * * * * * * * * * * * * **       |
eb|----------------------------------|     |--> Play 2x
Bb|----------------------------------|     |
Gb|----------------------------------|     |
Db|----------------------------------| ----|
Ab|----------------------------------|
Eb|-0-0-0-0-0-0-0-0-0-0-0-000-0-0000-|
    * * * * * * * * * * * *** * ****

Guitar 2
eb|------------------------------------|
Bb|------------------------------------|
Gb|--------7~--------------------------|
Db|-7-9-10-----10-9-10~--9-7-9~--7-5~--| ---|
Ab|------------------------------------|    |
Eb|------------------------------------|    |
                                            |
eb|----------------------------|            |--> Play 2x
Bb|----------------------------|            |
Gb|--------7~------------------|            |
Db|-7-9-10-----10-9-10~--9-7~--| -----------|
Ab|----------------------------|
Eb|----------------------------|

eb|------------------------------------|
Bb|------------------------------------|
Gb|------------------------------------|
Db|--------7~--------------------------| ---|
Ab|-7-9-10-----10-9-10~--9-7-9~--7-5~--|    |
Eb|------------------------------------|    |
                                            |
eb|----------------------------|            |--> Play 2x
Bb|----------------------------|            |
Gb|----------------------------|            |
Db|--------7~------------------| -----------|
Ab|-7-9-10-----10-9-10~--9-7~--|
Eb|----------------------------|

Guitar 3
eb|-------------------------------------|
Bb|-------------------------------------|
Gb|----7-9-10~--9-7-9~--7----7~---------|
Db|-10--------------------10-----10-9~--| ---|
Ab|-------------------------------------|    |
Eb|-------------------------------------|    |
                                             |
eb|----------------------------|             |--> Play 2x
Bb|----------------------------|             |
Gb|----7-9-10~--9-7-9~--7------|             |
Db|-10--------------------10~--| ------------|
Ab|----------------------------|
Eb|----------------------------|

eb|-------------------------------------|
Bb|-------------------------------------|
Gb|-------------------------------------|
Db|----7-9-10~--9-7-9~--7----7~---------| ---|
Ab|-10--------------------10-----10-9~--|    |
Eb|-------------------------------------|    |
                                             |
eb|----------------------------|             |--> Play 2x
Bb|----------------------------|             |
Gb|----------------------------|             |
Db|----7-9-10~--9-7-9~--7------| ------------|
Ab|-10--------------------10~--|
Eb|----------------------------|

Guitar 4
eb|----------10---------------------------|
Bb|-10-12-13-----13-12-13--12-10-12--10-8-|
Gb|---------------------------------------|
Db|---------------------------------------| ---|
Ab|---------------------------------------|    |
Eb|---------------------------------------|    |
                                               |
eb|----------10-------------------|            |--> Play 2x
Bb|-10-12-13-----13-12-13--12-10--|            |
Gb|-------------------------------|            |
Db|-------------------------------| -----------|
Ab|-------------------------------|
Eb|-------------------------------|

eb|-------------------------------------|
Bb|---------10--------------------------|
Gb|-9-11-12-----12-11-12--11-9-11--9-7--|
Db|----------~--------------------------| ---|
Ab|-------------------------------------|    |
Eb|-------------------------------------|    |
                                             |
eb|-----------------------------|            |--> Play 2x
Bb|---------10------------------|            |
Gb|-9-11-12-----12-11-12--11-9--|            |
Db|-----------------------------| -----------|
Ab|-----------------------------|
Eb|-----------------------------|

Guitar 5
eb|----------13-----------------------------|
Bb|-13-15-17-----17-15-17--15-13-15--13-12--|
Gb|-----------------------------------------|
Db|-----------------------------------------| ---|
Ab|-----------------------------------------|    |
Eb|-----------------------------------------|    |
                                                 |
eb|----------13-------------------|              |--> Play 2x
Bb|-13-15-17-----17-15-17--15-13--|              |
Gb|-------------------------------|              |
Db|-------------------------------| -------------|
Ab|-------------------------------|
Eb|-------------------------------|

eb|-----------------------------------------|
Bb|----------13-----------------------------|
Gb|-12-14-16-----16-14-16--14-12-14--12-11--|
Db|-----------------------------------------| ---|
Ab|-----------------------------------------|    |
Eb|-----------------------------------------|    |
                                                 |
eb|-------------------------------|              |--> Play 2x
Bb|----------13-------------------|              |
Gb|-12-14-16-----16-14-16--14-12--|              |
Db|-------------------------------| -------------|
Ab|-------------------------------|
Eb|-------------------------------|




Riff 9
eb|-----------------------|
Bb|-----------------------|
Gb|-----------------------|
Db|-2----------2----------|
Ab|-0----0-000-3----3-023-|
Eb|-----------------------|
         * ***      * ***     Final chord
eb|---------------------------|-----|
Bb|---------------------------|-----|
Gb|---------------------------|-----|
Db|-4----------7------6-------|--2--|
Ab|-5----5-550-8--888-7--77-5-|--0--|
Eb|---------------------------|-----|
         * ***    ***    ** *


Lead into next section:
eb|-----|
Bb|-----|
Gb|-----|
Db|-----|
Ab|--7--|
Eb|--5--|


Play Riff 3   "Attack, attack..."
Play Riff 2   "This tragedy..."

Song ends with Riff 2.

Drum beat leads into "Hold At All Costs".

-------------------------------------------------------

12. HOLD AT ALL COSTS
Tuning: Eb


Riff 1 (12 string acoustic)
eb|------0-------------0--------|
Bb|---------0-------------0-----|
Gb|-----------2----2--------2---|
Db|----2-------------2--------2-|
Ab|-0---------------------------|
Eb|-----------------------------|

eb|-------1------------------------|
Bb|----------1-----------1---------|
Gb|-----2------2-------0---------0-|
Db|-3----------------2---------0---|
Ab|--------------0-3---------2-----|
Eb|------------------------3-------|



Riff 2 (Distortion)
eb|------------------------------------|
Bb|------------------------------------|
Gb|------------------------------------|
Db|------------------------------------| --|
Ab|-7----------------------------------|   |
Eb|-5--5-5-5-5-5-5-555-5-5-5-5-5-5-555-|   |
       * * * * * * *** * * * * * * ***     |
eb|-----------------------------|          |--> Play 2x
Bb|-----------------------------|          |
Gb|-----------------------------|          |
Db|-----------------------------| ---------|
Ab|----------------------10--5--|
Eb|-5-5-5-5-5-5-555-5-5/--8--3--|
    * * * * * * *** * *

eb|------------------------------------|
Bb|------------------------------------|
Gb|------------------------------------|
Db|------------------------------------|
Ab|-3----------------------------------|
Eb|-1--1-1-1-1-1-1-111-1-1-1-1-1-1-111-|
       * * * * * * *** * * * * * * ***
eb|----------------------------|
Bb|----------------------------|
Gb|----------------------------|
Db|----------------------------|
Ab|---------------------10--5--|
Eb|-1-1-1-1-1-1-111-1-0--8--3--|
    * * * * * * *** * *
eb|------------------------------------|
Bb|------------------------------------|
Gb|------------------------------------|
Db|------------------------------------|
Ab|-7----------------------------------|
Eb|-5--5-5-5-5-5-5-555-5-5-5-5-5-5-555-|
       * * * * * * *** * * * * * * ***
eb|-----------------------------|
Bb|-----------------------------|
Gb|-----------------------------|
Db|-----------------------------|
Ab|----------------------10--5--|
Eb|-5-5-5-5-5-5-555-5-5/--8--3--|
    * * * * * * *** * *


Riff 3
Guitar 1
eb|----------------------------|
Bb|----------------------------|
Gb|----------------------------|
Db|----------------------------|
Ab|-5-7-7--7---------------7-5-|
Eb|-3-5-5--5------------55-5-3-|
    * * *               ** * *
eb|-------------------|
Bb|-------------------|
Gb|-------------------|
Db|-------------------|
Ab|-3--------10----5--|
Eb|-1---------8----3--|

Guitar 2
eb|---------------------------------------------|
Bb|---------------------------------------------|
Gb|---------------------------------------------|
Db|---5--7--/10--9-7~---------5--7--/10--9-7--5-|
Ab|-7-----------------------7-------------------|
Eb|---------------------------------------------|

eb|------------------------------------|
Bb|------------------------------------|
Gb|-12--10-9~---10-9-7-9---------------|
Db|-----------------------10--9--10-7~-|
Ab|------------------------------------|
Eb|------------------------------------|

eb|----------------------|
Bb|----------------------|
Gb|-12--10--14--12--14~--|
Db|----------------------|
Ab|----------------------|
Eb|----------------------|

Guitar 3
eb|-----------------------------------------------|
Bb|-----------------------------------------------|
Gb|-----------------------------------------------|
Db|----9-10--/14--12-10~------9-10--/14--12-10--9-|
Ab|-10---------------------10---------------------|
Eb|-----------------------------------------------|

eb|------------------------------------|
Bb|-12--10-8~---10-8----8--------------|
Gb|------------------10----9--7--9-----|
Db|--------------------------------10~-|
Ab|------------------------------------|
Eb|------------------------------------|

eb|----------------------|
Bb|-12--10--13--12--13~--|
Gb|----------------------|
Db|----------------------|
Ab|----------------------|
Eb|----------------------|


Play Riff 2   "Down below's the carnage..."
Play Riff 3   "We'll know what..."


Riff 4
Guitar 1
eb|-----------------------------------|
Bb|-----------------------------------|
Gb|-----------------------------------|
Db|-----------------------------------|
Ab|-7---------------------------------|
Eb|-5-555555555555555555555555555555\-|
      ******************************
eb|----------------------------------------|
Bb|----------------------------------------|
Gb|----------------------------------------|
Db|----------------------------------------|
Ab|-3-----------------10---------5---------|
Eb|-1-11111111111111/--8-888888\-3-333333/-|
      **************    ******   ******


Orchestra part arranged for guitar:                x2
eb|-------------------------------------------------|
Bb|-17-15-13-15-17-15-13-15-17-15-13-15-17-15-13-15-|
Gb|-------------------------------------------------|
Db|-------------------------------------------------|
Ab|-------------------------------------------------|
Eb|-------------------------------------------------|

eb|-------------------------------------------------|
Bb|-18-17-15-13-18-17-15-13-18-17-15-13-18-17-15-13-|
Gb|-------------------------------------------------|
Db|-------------------------------------------------|
Ab|-------------------------------------------------|
Eb|-------------------------------------------------|

eb|-17-15-13-15-17-15-13-15-19-17-15-17-19--17--|
Bb|---------------------------------------------|
Gb|---------------------------------------------|
Db|---------------------------------------------|
Ab|---------------------------------------------|
Eb|---------------------------------------------|



Riff 5
Guitar 1
eb|-------------------------------|
Bb|-------------------------------|
Gb|-------------------------------|
Db|------7\---------7--10-9--7-7--|
Ab|-7-10-------7-10---------------|
Eb|-------------------------------|
    *  *       *  *
eb|-------------------------------------|
Bb|-------------------------------------|
Gb|---------7---------------9--7--------|
Db|------7----10--9-9--7-9-------10--7\-|
Ab|-7-10--------------------------------|
Eb|-------------------------------------|
    * *

Guitar 2
eb|-----------------------------------|
Bb|-----------------------------------|
Gb|----------------------9------------|
Db|----9-10\-------9-10----12--10-10--|
Ab|-10----------10--------------------|
Eb|-----------------------------------|
     *           *
eb|------------------------------------------|
Bb|------------------------------------------|
Gb|---------12-10--9-9-----9--12--10--9------|
Db|----9-10-------------12---------------10\-|
Ab|-10---------------------------------------|
Eb|------------------------------------------|


Play Riff 2   "Wave after wave..."
Play Riff 3   "We'll know what..."


Ending:

Guitar 1
eb|----------------------------|
Bb|----------------------------|
Gb|----------------------------|
Db|----------------------------|
Ab|-5-7-7--7---------------7-5-|
Eb|-3-5-5--5------------55-5-3-|
    * * *               ** * *
  "...stay the course..."
eb|--------------------------|
Bb|--------------------------|
Gb|--------------------------|
Db|--------------------------|
Ab|-3--------5--3--10--5--7--|
Eb|-1--------3--1---8--3--5--|
  "...we so love..."

Guitar 2
eb|------------------------------------|
Bb|------------------------------------|
Gb|-12--10-9~---10-9-7-9---------------|
Db|-----------------------10--9--10-7~-|
Ab|------------------------------------|
Eb|------------------------------------|

eb|----------------------|
Bb|----------------------|
Gb|-12--10--14--12--14~--|
Db|----------------------|
Ab|----------------------|
Eb|----------------------|

Guitar 3
eb|------------------------------------|
Bb|-12--10-8~---10-8----8--------------|
Gb|------------------10----9--7--9-----|
Db|--------------------------------10~-|
Ab|------------------------------------|
Eb|------------------------------------|

eb|----------------------|
Bb|-12--10--13--12--13~--|
Gb|----------------------|
Db|----------------------|
Ab|----------------------|
Eb|----------------------|


Song ends with gunfire leading into "High Water Mark".

--------------------------------------------------------------

13. HIGH WATER MARK

Tuning: Eb


Riff 1
First time:
eb|----------------------------------------|
Bb|----------------------------------------|
Gb|----------------------------------------|
Db|-99-9--------9--11--12--------12-11--7--|
Ab|-77-7--------7---9--10--------10--9--5--|
Eb|----------------------------------------|

eb|------------------------------------------------------|
Bb|------------------------------------------------------|
Gb|------------------------------------------------------|
Db|-11----9--------9--7--5--------5--9--7----------------|
Ab|--9----7--------7--5--3--------3--7--5--------5--7--2-|
Eb|----------------------------------------------3--5--0-|

Rest of the time:
eb|-------------------------------------|
Bb|-------------------------------------|
Gb|-------------------------------------|
Db|-9--------9--11--12--------12-11--7--|
Ab|-7--------7---9--10--------10--9--5--|
Eb|-------------------------------------|

eb|------------------------------------------------------|
Bb|------------------------------------------------------|
Gb|------------------------------------------------------|
Db|-11----9--------9--7--5--------5--9--7----------------|
Ab|--9----7--------7--5--3--------3--7--5--------5--7--2-|
Eb|----------------------------------------------3--5--0-|



Riff 2 (12 string acoustic)              x4
eb|---------------------------------------|
Bb|---------------------------------------|
Gb|---------------------------------------|
Db|-----9----------7--------5----------4--|
Ab|---7---7------7--------7---7------7----|
Eb|-0----------0--------0----------0------|
   "It was very close..."

eb|-------------------------------|
Bb|-------------------------------|
Gb|-------------------------------|
Db|-9--x-7--x-5----x-5--x-7--x-9--|
Ab|-7--x-5--x-3----x-3--x-5--x-7--|
Eb|-------------------------------|
   "Execute it well..."
eb|---------------------------------|
Bb|---------------------------------|
Gb|---------------------------------|
Db|-x-9--x-7--x-5----x-5--x-7--x-9--|
Ab|-x-7--x-5--x-3----x-3--x-5--x-7--|
Eb|---------------------------------|
   "...thing, it's in God's..."



Riff 2a (12 string acoustic)
eb|-----------------------------|
Bb|-----------------------------|
Gb|-----------------------------|
Db|-----9------9------7------7--| ----|
Ab|---7---7--7------7---7--7----|     |
Eb|-0-------------0-------------|     |
   "General Lee I must tell you..."   |
eb|-----------------------------|     |--> Play 4x
Bb|-----------------------------|     |
Gb|-----------------------------|     |
Db|-----5------5------4------4--| ----|
Ab|---7---7--7------7---7--7----|
Eb|-0-------------0-------------|
   "...that I believe..."

eb|-------------------------------|
Bb|-------------------------------|
Gb|-------------------------------|
Db|-9--x-7--x-5----x-5--x-7--x-9--|
Ab|-7--x-5--x-3----x-3--x-5--x-7--|
Eb|-------------------------------|
   "Execute it well..."
eb|---------------------------------|
Bb|---------------------------------|
Gb|---------------------------------|
Db|-x-9--x-7--x-5----x-5--x-7--x-9--|
Ab|-x-7--x-5--x-3----x-3--x-5--x-7--|
Eb|---------------------------------|
   "...thing, it's in God's..."




Riff 3
Guitar 1 (Distortion)                      Final chord
eb|-0--------------------------------------|--0--|
Bb|-0--------------------------------------|--0--|
Gb|-0--------------------------------------|--0--|
Db|-5--------5-4---4-----------4-5---7---4-|--5--|
Ab|-7------------7----5--------5-7---9---5-|--7--|
Eb|--------------------------------0---0---|-----|
                                   *   *

Guitar 2 (Distortion)                      Final chord
eb|-0--------------------------------------|--0--|
Bb|-0--------------------------------------|--0--|
Gb|-0--------4-----------------------------|--0--|
Db|-5----------7-5-7--4--------4-5---7---4-|--5--|
Ab|-7--------------------------5-7---9---5-|--7--|
Eb|--------------------------------0---0---|-----|
                                   *   *

Guitar 3 (12 string acoustic)              Final chord
eb|-0--------------------------------------|--0--|
Bb|-0--------------------------------------|--0--|
Gb|-0--------------------------------------|--0--|
Db|-5--------5-4---4-----------4-5---7---4-|--5--|
Ab|-7------------7----5--------5-7---9---5-|--7--|
Eb|--------------------------------0---0---|-----|


Guitar 4 (Distortion, comes in later)
eb|----------------------------------------|
Bb|----------------------------------------|
Gb|----------------------------------------|
Db|----------------------------------------|
Ab|----------------------------------------|
Eb|-000--000--000--000--000--000--000--000-|
    ***  ***  ***  ***  ***  ***  ***  ***

(Guitar 4 then plays this through to the next riff)
eb|-------------------------------------|
Bb|-------------------------------------|
Gb|-------------------------------------|
Db|-------------------------------------|
Ab|-------------------------------------|
Eb|-000-0-0-000-0-0-000-0-0-000-0-0-...-|
    *** * * *** * * *** * * *** * *



Riff 4
Guitar 1
eb|----------------------------------------------|
Bb|----------------------------------------------|
Gb|----------------------------------------------|
Db|------5----4-5----------5----4-5----4----4-2--|
Ab|------7----5-7----------7----5-7----5----5-3--|
Eb|-0-00---00-----000-0-00---00-----00---00------|
    * **   **     *** * **   **     **   ** *
       "The rebel cannon..."
eb|--------------------------------------------------------------|
Bb|--------------------------------------------------------------|
Gb|--------------------------------------------------------------|
Db|------5----4-5----------5----4-5----4----4-2------2----5--5---|
Ab|------7----5-7----------7----5-7----5----5-3------0----3--3-5-|
Eb|-0-00---00-----000-0-00---00-----00---00--------0----0------3-|
    * **   **     *** * **   **     **   ** *      *    *
       "150 Guns make up..."

Final time:
eb|----------------------------------------------------------------|
Bb|----------------------------------------------------------------|
Gb|----------------------------------------------------------------|
Db|------5----4-5----------5----4-5----4----4-2------2----5--5-----|
Ab|------7----5-7----------7----5-7----5----5-3------0----3--3-5---|
Eb|-0-00---00-----000-0-00---00-----00---00--------0----0------3-0-|
    * **   **     *** * **   **     **   ** *      *    *        *

Guitar 2 (Plays through into next riff)
eb|-------------------------------------|
Bb|-------------------------------------|
Gb|-------------------------------------|
Db|-------------------------------------|
Ab|-------------------------------------|
Eb|-000-0-0-000-0-0-000-0-0-000-0-0-...-|
    *** * * *** * * *** * * *** * *



Riff 3a
Guitar 1                                 Final chord
eb|-0------------------------------------|--0--|
Bb|-0------------------------------------|--0--|
Gb|-0------------------------------------|--0--|
Db|-5--------5-4---4-----------4-5--7--4-|--5--|
Ab|-7------------7----5--------5-7--9--5-|--7--|
Eb|--------------------------------------|-----|
        "What happens here..."

Guitar 2                                 Final chord
eb|-0------------------------------------|--0--|
Bb|-0------------------------------------|--0--|
Gb|-0--------4---------------------------|--0--|
Db|-5----------7-5-7--4--------4-5--7--4-|--5--|
Ab|-7--------------------------5-7--9--5-|--7--|
Eb|--------------------------------------|-----|

Guitar 3 (Plays through into next riff)
eb|-------------------------------------|
Bb|-------------------------------------|
Gb|-------------------------------------|
Db|-------------------------------------|
Ab|-------------------------------------|
Eb|-000-0-0-000-0-0-000-0-0-000-0-0-...-|
    *** * * *** * * *** * * *** * *


Play Riff 4    "The Virginians are the chosen..."
Play Riff 3a   "The slaughter now ensues..."

Guitar 3's final time in Riff 3a:
eb|----------------------------|
Bb|----------------------------|
Gb|----------------------------|
Db|----------------------------|
Ab|----------------------------|
Eb|-000-0-0-000-0-0-000-0-0-00-|
    *** * * *** * * *** * * **


Riff 5
eb|----------------------------------|
Bb|----------------------------------|
Gb|----------------------------------|
Db|----------------------------8--5--|
Ab|-7--7-7-7-7--7-7-7-7--7-7-7-8--5--|
Eb|-5--5-5-5-5--5-5-5-5--5-5-5-------|
    *  * * * *  * * * *  * * *
eb|-----------------------------------|
Bb|-----------------------------------|
Gb|-----------------------------------|
Db|-7--------------------------10--5--|
Ab|-7--7-7-7-7--7-7-7-7--7-7-7-10--5--|
Eb|----5-5-5-5--5-5-5-5--5-5-5--------|
       * * * *  * * * *  * * *

eb|----------------------------------|
Bb|----------------------------------|
Gb|----------------------------------|
Db|-7--------------------------8--5--| ----|
Ab|-7--7-7-7-7--7-7-7-7--7-7-7-8--5--|     |
Eb|----5-5-5-5--5-5-5-5--5-5-5-------|     |
       * * * *  * * * *  * * *             |
eb|-----------------------------------|    |--> Play 3x
Bb|-----------------------------------|    |
Gb|-----------------------------------|    |
Db|-7--------------------------10--5--| ---|
Ab|-7--7-7-7-7--7-7-7-7--7-7-7-10--5--|
Eb|----5-5-5-5--5-5-5-5--5-5-5--------|
       * * * *  * * * *  * * *


Riff 6
Guitar 1
eb|--------------------------------------------|
Bb|--------------------------------------------|
Gb|----5----------4-5--4-----5----------4-5--4-|
Db|-7----7----5-7---------7----7----5-7--------|
Ab|--------------------------------------------|
Eb|--------------------------------------------|

eb|--------------------------------------------|
Bb|--------------------------------------------|
Gb|----4--------4-5-7--5-----5----------4-5--4-|
Db|-5----5----------------7----7----5-7--------|
Ab|-----------7--------------------------------|
Eb|--------------------------------------------|

Guitar 2
eb|--------------------------------------------------|
Bb|--------------------------------------------------|
Gb|-----9------------7-9--7------9------------7-9--7-|
Db|-10----10----9-10---------10----10----9-10--------|
Ab|--------------------------------------------------|
Eb|--------------------------------------------------|

eb|------------------------------------------------|
Bb|------------------------------------------------|
Gb|----7--------7-9-10--9------9------------7-9--7-|
Db|-9----9-----------------10----10----9-10--------|
Ab|----------10------------------------------------|
Eb|------------------------------------------------|



Riff 7
eb|-------------------------------------|
Bb|-------------------------------------|
Gb|-------------------------------------|
Db|-------------------------------8--8--|
Ab|-------------------------------8--8--|
Eb|-3-555-5--3-555-5--3-555-5-335-------|
    * *** *  * *** *  * *** * ***
eb|---------------------------------------|
Bb|---------------------------------------|
Gb|---------------------------------------|
Db|-------------------------------10--10--|
Ab|-------------------------------10--10--|
Eb|-3-555-5--3-555-5--3-555-5-335---------|
    * *** *  * *** *  * *** * ***


Play Riff 6
Play Riff 7


Riff 8 (Play 2x)
eb|--------------------------------|
Bb|--------------------------------|
Gb|--------------------------------|
Db|-7----9-10-----10\5----5-2----5-|
Ab|-7----9-10-----10\5----5-2----5-|
Eb|-5----7--8------8\3----3-0----3-|
   "We're almost there..."
eb|---------------------------------|
Bb|---------------------------------|
Gb|----------------9--7-----5-------|
Db|-7----9-10------9--7-----5----5--|
Ab|-7----9-10------7--5-----3----5--|
Eb|-5----7--8----0---------------3--|
                 *
   "We must push..."



Riff 9 (Play 2x)
eb|------------------------------|
Bb|------------------------------|
Gb|------------------------------|
Db|------------------------------|
Ab|-10-12121212----1010-13131313-|
Eb|------------------------------|
     *  * * * *     * *  * * * *
eb|------------------------------|
Bb|------------------------------|
Gb|------------------------------|
Db|------------------------------|
Ab|-10-12121212----1010-15151515-|
Eb|------------------------------|
     *  * * * *     * *  * * * *
eb|------------------------------------------|
Bb|------------------------------------------|
Gb|------------------------------------------|
Db|------------------------------------------|
Ab|-10-12121212----1010-13131313-10-12121212-|
Eb|------------------------------------------|
     *  * * * *     * *  * * * *  *  * * * *


Riff 10
eb|------------------|
Bb|------------------|
Gb|------------------|
Db|------------------|
Ab|------------------|
Eb|-3-5-3-55-6-5-3-5-|
    * * * ** * * * *


Riff 11                           x2
eb|--------------------------------|
Bb|--------------------------------|
Gb|--------------------------------|
Db|-7--------12--10-------10\9-9\7-|
Ab|-5--------10---8--------8\7-7\5-|
Eb|-5--------10---8--------8\7-7\5-|
   "It's over now..."
eb|----------------------------|
Bb|----------------------------|
Gb|----------------------------|
Db|-5--------10--9--------10-9-|
Ab|-3---------8--7---------8-7-|
Eb|-3---------8--7---------8-7-|
   "I am responsible..."          x2
eb|--------------------------------|
Bb|--------------------------------|
Gb|--------------------------------|
Db|-7--------12--10-------10\9-9\7-|
Ab|-5--------10---8--------8\7-7\5-|
Eb|-5--------10---8--------8\7-7\5-|
   "I thought us..."
eb|----------------------------|
Bb|----------------------------|
Gb|----------------------------|
Db|-5--------10--9--------10-9-|
Ab|-3---------8--7---------8-7-|
Eb|-3---------8--7---------8-7-|
   "God forgive me..."
eb|--------------------------------|
Bb|--------------------------------|
Gb|--------------------------------|
Db|-7--------12--10-------10\9-9\7-|
Ab|-5--------10---8--------8\7-7\5-|
Eb|-5--------10---8--------8\7-7\5-|
   "It's all my fault..."


Riff 12
eb|------------------------------|
Bb|------------------------------|
Gb|------------------------------|
Db|-77777-77777-77777-7777-8--8--|
Ab|-55555-55555-55555-5555-6--6--|
Eb|-55555-55555-55555-5555-6--6--|
    ***** ***** ***** ****
   "...hands!"


Song fades out, ending arranged for guitar:

eb|----------------------------------|
Bb|----------------------------------|
Gb|----14----12-10-12--14--/10--9-7--|
Db|-12-------------------------------|
Ab|----------------------------------|
Eb|----------------------------------|

eb|------------------------------------|
Bb|------------------------------------|
Gb|----14----12-10-12--14--/17--15-14--|
Db|-12---------------------------------|
Ab|------------------------------------|
Eb|------------------------------------|

eb|----------------------------------|
Bb|----------------------------------|
Gb|----14----12-10-12--14--/10--9-7--|
Db|-12-------------------------------|
Ab|----------------------------------|
Eb|----------------------------------|

----------------------------------------------------

14. WHEN THE EAGLE CRIES (UNPLUGGED)
Tuning: Eb


NOTE: This whole song has a 6 string and 12 string
acoustic guitar playing the rhythm.


Riff 1
eb|--------------------------------|
Bb|-----------------------------0--|
Gb|-----------0---------------0----|
Db|-----4---4---4-------4---4------|
Ab|---2---2-------2---2---2--------|
Eb|-0---------------0--------------|

eb|--------------------------------|
Bb|-----------------------------0--|
Gb|-----------0---------------0----|
Db|-----4---4---4-------4---4------|
Ab|---2---2-------2---2---2--------|
Eb|-0---------------0--------------|

eb|-----------------------------|
Bb|-----------------------------|
Gb|------0------------2---------|
Db|---2-----2------4------4-----|
Ab|-3----------3-5-----------5--|
Eb|-----------------------------|




Riff 2
Guitar 1
eb|-------0--0-0--0--0--0-0---|
Bb|-------0--0-0--1--1--1-1---|
Gb|-------0--0-0--0--0--0-0---|
Db|---------------2--2--2-2---|
Ab|-2--2----------3--3--3-3-0-|
Eb|-0--0----------------------|
   "...cries..."
eb|-2--2-2--2-2--3--3--3-3-|
Bb|-3--3-3--3-3--3--3--3-3-|
Gb|-2--2-2--2-2--0--2--2-2-|
Db|-4--4-4--4-4------------|
Ab|-5--5-5--5-5------------|
Eb|------------------------|
   "Blood will flow..."

Final chord:
eb|-----|
Bb|-----|
Gb|-----|
Db|-----|
Ab|--2--|
Eb|--0--|
   "...cries..."

Guitar 2
eb|--------------------------|
Bb|--------------------------|
Gb|--------------------------|
Db|--------9-7-----9-7-------|
Ab|-7----7-----10------10----|
Eb|--------------------------|

eb|--------------------------|
Bb|--------------------------|
Gb|--------------------------|
Db|-7-----------------9------|
Ab|---9-5----------10---10-9-|
Eb|--------------------------|

Final note:
eb|-----|
Bb|-----|
Gb|-----|
Db|-----|
Ab|--7--|
Eb|-----|



Play Riff 1   "Out of the ashes..."
Play Riff 2   "...cries..."



Riff 3 (Solo Rhythm)
eb|------------------------------|
Bb|------------------------------|
Gb|------------------------------|
Db|------------------------------|
Ab|-2----2-2----2---2---2--2-2---|
Eb|-0----0-0----0-3-3-3-3--3-3-0-|

eb|-----------------------------|
Bb|-----------------------------|
Gb|-----------------------------|
Db|-----------------------------|
Ab|-5----5-5----5---5--5--5-5---|
Eb|-2----2-2----2-2-3--2--3-3-0-|

eb|------------------------------|
Bb|------------------------------|
Gb|------------------------------|
Db|------------------------------|
Ab|-2----2-2----2---2---2--2-2---|
Eb|-0----0-0----0-3-3-3-3--3-3-0-|

eb|-----------------------------|
Bb|-----------------------------|
Gb|-----------------------------|
Db|-----------------------------|
Ab|-5----5-5----5---5--5--5-5---|
Eb|-2----2-2----2-2-3--2--3-3-0-|

eb|-----------------------------|
Bb|-----------------------------|
Gb|-----------------------------|
Db|-2----2-2----2-2----2-2----2-|
Ab|-3----3-3----3-3----3-3----3-|
Eb|-----------------------------|

eb|-------------------------|
Bb|-------------------------|
Gb|-------------------------|
Db|-4----4-4----4---9----7--|
Ab|-5----5-5----5--10----9--|
Eb|-------------------------|



Solo
eb|---------------------------------------------|
Bb|---------------------------------------------|
Gb|---------------------------------------------|
Db|---------------------------10h12-10-9-10-7--|
Ab|-79-107~----9-10-7--9-10-------------------|
Eb|---------------------------------------------|

eb|-------------------------------------------------|
Bb|-------------------------------------------------|
Gb|-----11-----12-----14-17-16-14-16b17----16p14-16-|
Db|-/12----/14----/16-------------------------------|
Ab|-------------------------------------------------|
Eb|-------------------------------------------------|

eb|--------------------------------------------------|
Bb|-------------------------------13h15-13--12-13----|
Gb|-14-16/17----16p14-16--14--12------------------14-|
Db|--------------------------------------------------|
Ab|--------------------------------------------------|
Eb|--------------------------------------------------|

eb|----------------------------------|
Bb|-13h15----13h15-13-12-13-12-------|
Gb|-14h16----14h16-14----14----14-16-| <-- harmony guitar
Db|-------------------17----17-16-17-|     plays bottom notes
Ab|----------------------------------|
Eb|----------------------------------|

eb|-------------------------------------|
Bb|-------------------------------------|
Gb|-14-16-16----14-16-16----14-16-/17~--|
Db|-16-17-17----16-17-17----16-17-/19~--| <-- harmony guitar
Ab|-------------------------------------|
Eb|-------------------------------------|

eb|-------------------------|
Bb|--------------19h20-19~--|
Gb|-14-16--19----19h21-19~--| <-- harmony guitar
Db|-16-17-------------------|
Ab|-------------------------|
Eb|-------------------------|

eb|-------------------------------------------------|
Bb|-15-15h17-15-------------------------------------|
Gb|-------------14-12-11----12h14-12-11-------------|
Db|----------------------12-------------12----------|
Ab|----------------------------------------14-12----|
Eb|----------------------------------------------12-|

End Solo


Play Riff 2   "...cries..."


Notation:

10^        = bend a quarter step.
10b11      = bend a half step.
10b12      = bend a full step.
10b12r10   = bend and release.
[10]12     = pre-bend.
[10]12r10  = pre-bend and release.
{14}       = pick the 14th fret while holding the most 
             previous bend.
<17>       = touch the string above the 17th fret while 
             previous note(s) is(are) still ringing.

10b13*     = tremolo bar bend, from the 10th fret to the 13th fret.
7d4*       = tremolo bar dive, from the 7th fret to the 4th fret. 
12~*       = tremolo bar vibrato.

x   =  mute with fret-hand
*   =  palm mute
X\\ =  pick slide
h   =  hammer-on
p   =  pull-off
~   =  vibrato
t   =  finger tap
/   =  slide up
\   =  slide down
h.  =  natural harmonics
a   =  artificial harmonics
(9) =  ghost note
tm  =  trem picking
tr  =  trill







Related for Glorious Burden tab