Song name
# A B C D E F G H I J K L M N O P Q R S T U V W X Y Z

Icons Of Filth - Politricks tab

intro/verse:
e|-------------------------------------------------------------------------|
B|-------------------------------------------------------------------------|
G|-------------------------------------------------------------------------|
D|-77766677766677766444444-------------------------------------------------|
A|-77766677766677766444444-------------------------------------------------|
E|-55544455544455544222222-------------------------------------------------|

chorus:
e|------------(4x)then-----------------------------------------------------|
B|-------------------------------------------------------------------------|
G|-999999555777------------------------------------------------------------|
D|-999999555777--------12/-------------------------------------------------|
A|-777777333555--------12/-------------------------------------------------|
E|---------------------10/-------------------------------------------------|

end on:
e|-------------------------------------------------------------------------|
B|-------------------------------------------------------------------------|
G|-------------------------------------------------------------------------|
D|-4-----------------------------------------------------------------------|
A|-4-----------------------------------------------------------------------|
E|-2-----------------------------------------------------------------------|

thats all. questions or comments 
                                  crust_and_anguish_life@yahoo.com
Tap to rate this tab
# A B C D E F G H I J K L M N O P Q R S T U V W X Y Z