Guitaretab - guitar tabs
Song name
# A B C D E F G H I J K L M N O P Q R S T U V W X Y Z

Ida Maria - Louie I Know Im Always Drunk tab

Louie by Ida Maria


Tabbed by: suicide baby
Email: daveweatherall@hotmail.com


This is a brilliant song by a brilliant (and really rather pretty) girl who I only 
recently because of a friend. As someone else has already

Iím not sure about the first three chords (particularly the second one) but Iím fairly 
the rest are right! Email me with any suggestions if youíre better at this than meÖ

Tuning:standard

Listen to it for the strumming pattern but the chords are:


Verse
[ Tab from: http://www.guitaretab.com/i/ida-maria/107093.html ]
   G     ?    C/B    C     Em    Am
e|-0-----x-----0-----0-----0-----0--|	x 4
B|-1-----x-----1-----1-----0-----1--|
G|-0-----0-----0-----0-----0-----2--|
D|-0-----0-----2-----2-----2-----2--|
A|-2-----3-----2-----3-----2-----0--|
E|-3-----2-----x-----x-----0-----x--|

Chorus

   D     Am    D     Am    D
e|-2-----0-----2-----0-----2--|
B|-3-----1-----3-----1-----3--|
G|-2-----2-----2-----2-----2--|
D|-0-----2-----0-----2-----0--|
A|-x-----0-----x-----0-----x--|
E|-x-----x-----x-----x-----x--|

Enjoy!!!

Ida Maria
http://www.idamaria.co.uk/idamaria.php
http://www.rcalabelgroup.co.uk/artist_spotlight/Ida_Maria/biog/
http://profile.myspace.com/index.cfm?fuseaction=user.viewprofile&friendid=62152007
Related for Louie I Know Im Always Drunk tab