Song name
# A B C D E F G H I J K L M N O P Q R S T U V W X Y Z

Idgits - School tab

**********************^SCHOOL

I use really heavy distortion!!!!!!


------------------------------------------|
------------------------------------------|
------------------------------------------|
------------------------------------------|
0-7-0-6-0-5-0-4-0-3-0-2-0-3-0-4-0-5-0-6-0-|
0-7-0-6-0-5-0-4-0-3-0-2-0-3-0-4-0-5-0-6-0-|

------------------------------------------|
------------------------------------------|
------------------------------------------|
------------------------------------------|
0-7-0-6-0-5-0-4-0-3-0-2-0-3-0-4-0-5-0-6-0-|
0-7-0-6-0-5-0-4-0-3-0-2-0-3-0-4-0-5-0-6-0-|

000000070000000600000005000000300000002000
------------------------------------------|
------------------------------------------|
------------------------------------------|
------------------------------------------|
------------------------------------------|

------------------------------------------|
------------------------------------------|
------------------------------------------|
------------------------------------------|
0-7-0-6-0-5-0-4-0-3-0-2-0-3-0-4-0-5-0-6-0-|
0-7-0-6-0-5-0-4-0-3-0-2-0-3-0-4-0-5-0-6-0-|

------------------------------------------|
------------------------------------------|
------------------------------------------|
------------------------------------1/12--|
------------------------------------1/12--|
7777777-----------------------------1/12--|
Tap to rate this tab
# A B C D E F G H I J K L M N O P Q R S T U V W X Y Z