Song name
# A B C D E F G H I J K L M N O P Q R S T U V W X Y Z

Idgits - Blah tab

                      USE HEAVY DISTORTION

                            BLAH


-------3H55-3H55-3H55-3H55-3H5------------------------|
-------3H55-3H55-3H55-3H55-3H5------------------------|
-------3H55-3H55-3H55-3H55-3H5------------------------|
------------------------------------------------------|
------------------------------------------------------|
------------------------------------------------------|

2XXXXX2XXXXXXXXXX2XXXXXXX2XXXXXXXXX2XXXXXXX2XXXXXXXXXX2
0XXXXX0XXXXXXXXXX0XXXXXXX0XXXXXXXXX0XXXXXXX0XXXXXXXXXX0
0XXXXX0XXXXXXXXXX0XXXXXXX0XXXXXXXXX0XXXXXXX0XXXXXXXXXX0
0XXXXX0XXXXXXXXXX0XXXXXXX0XXXXXXXXX0XXXXXXX0XXXXXXXXXX0
0XXXXX0XXXXXXXXXX0XXXXXXX0XXXXXXXXX0XXXXXXX0XXXXXXXXXX0
2XXXXX2XXXXXXXXXX2XXXXXXX2XXXXXXXXX2XXXXXXX2XXXXXXXXXX2

-------3H55-3H55-3H55-3H55-3H5------------------------|
-------3H55-3H55-3H55-3H55-3H5------------------------|
-------3H55-3H55-3H55-3H55-3H5------------------------|
------------------------------------------------------|
------------------------------------------------------|
------------------------------------------------------|

2XXXXX2XXXXXXXXXX2XXXXXXX2XXXXXXXXX2XXXXXXX2XXXXXXXXXX2
0XXXXX0XXXXXXXXXX0XXXXXXX0XXXXXXXXX0XXXXXXX0XXXXXXXXXX0
0XXXXX0XXXXXXXXXX0XXXXXXX0XXXXXXXXX0XXXXXXX0XXXXXXXXXX0
0XXXXX0XXXXXXXXXX0XXXXXXX0XXXXXXXXX0XXXXXXX0XXXXXXXXXX0
0XXXXX0XXXXXXXXXX0XXXXXXX0XXXXXXXXX0XXXXXXX0XXXXXXXXXX0
2XXXXX2XXXXXXXXXX2XXXXXXX2XXXXXXXXX2XXXXXXX2XXXXXXXXXX2

------------------------------------------------------|
--2---------------------------------------------------|
--2---------------------------------------------------|
--0---------------------------------------------------|
--0---------------------------------------------------|
--0---------------------------------------------------|
Tap to rate this tab
# A B C D E F G H I J K L M N O P Q R S T U V W X Y Z