Song name
# A B C D E F G H I J K L M N O P Q R S T U V W X Y Z

Idiot Pilot - Day In The Life Of A Pool Shark tab

Help us improve GuitareTab! Take a short survey!
#----------------------------------PLEASE NOTE---------------------------------#
#This file is the author's own work and represents their interpretation of the #
#song. You may only use this file for private study, scholarship, or research. #
#------------------------------------------------------------------------------##


Gtr I (E A D G B E) - 'Untitled'
Gtr II (E A D G B E) - 'Untitled'

  Q=150
 4/4
  Gtr I
  E E E E E E E E   E E E E E E E E   E E E E E E E E   E E E E E E E E
|---------3-------|-----------------|-----------------|------------------|
|-----------3---3-|-----------------|---------1-------|-----1---4-1---1--|
|-------------0---|-----------------|-----2-----2---2-|---0---0-----0----|
|-----0-----------|-----2---4-0---0-|-----------------|------------------|
|---2---2---------|-------------0---|-0-3---0-----3---|-3----------------|
|-3---------------|-0-3---3---------|-----------------|------------------|


  Gtr I
  E E E E E E E E   E E E E E E E E   E E E E E E E E   E E E E E E  E E
|---------3-------|-----------------|-----------------|-------------------|
|-----------3---3-|-----------------|---------1-------|-----1---4-1----1--|
|-------------0---|-----------------|-----2-----2---2-|---0---0------0----|
|-----0-----------|-----2---4-0---0-|-----------------|-------------------|
|---2---2---------|-------------0---|-0-3---0-----3---|-3-----------------|
|-3---------------|-0-3---3---------|-----------------|-------------------|
|
| Gtr II
| E E E E E E E E   E E E E E E E E   Q   E E E E E E   E E E E E Q.
|-3-------3-------|-2-------3---3---|---------3-------|-3---2---3---------|
|-----0-------0---|-----0-----------|-----1-------1---|-------------------|
|-----------------|-----------------|-----------------|-------------------|
|-----------------|-----------------|-----------------|-------------------|
|-----------------|-----------------|-----------------|-------------------|
|-----------------|-----------------|-----------------|-------------------|


Duration Legend
---------------
W - whole; H - half; Q - quarter; E - 8th; S - 16th; T - 32nd; X - 64th; a - acciaccatura
+ - note tied to previous; . - note dotted; .. - note double dotted
Uncapitalized letters represent notes that are staccato (1/2 duration)
Irregular groupings are notated above the duration line
Duration letters will always appear directly above the note/fret number it represents the
duration for.  Duration letters with no fret number below them represent rests.  Multi-
bar rests are notated in the form Wxn, where n is the number of bars to rest for.  Low
melody durations appear below the staff


***************************************************************************************
* Generated using Power Tab Editor by Brad Larsen - http://powertab.guitarnetwork.org *
***************************************************************************************
Related for Day In The Life Of A Pool Shark tab