Song name
# A B C D E F G H I J K L M N O P Q R S T U V W X Y Z

Idle Sons - Waiting Around tab

Waiting Around
Idle Sons


1/2 step down, Drop D


        intro
guitar 1
e------------------------------------------------|
b------------------------------------------------|
g-x-x-44444444442222222222----------2----------2-|
d-x-x-44444444442222222222-555-4-2--2-555-4-2--2-|
a-x-x-22222222220000000000-555-4-2--0-555-4-2--0-|
D-x-x----------------------555-4-2----555-4-2----|
guitar 2						    x2
e------------------------------------------------|
b-x-x--------------------------------------------|
g-x-x-44664466446677887788----------2----------2-|
d-x-x----------------------555-4-2--2-555-4-2--2-|
a-x-x-22442244224455665566-555-4-2--0-555-4-2--0-|
D-x-x----------------------555-4-2----555-4-2----|
  both
  pm---->
e---------|
b---------|
g-4444444-
d-4444444-
a-2222222-
D---------


verse (basically..just plam mute)
e------------------------------------------------|
b------------------------------------------------|
g-x-x-44444444442222222222----------2----------2-|
d-x-x-44444444442222222222-555-4-2--2-555-4-2--2-|   x2
a-x-x-22222222220000000000-555-4-2--0-555-4-2--0-|
D-x-x----------------------555-4-2----555-4-2----|


chorus
guitar 1
e------------------------------------------------|
b------------------------------------------------|
g-x-x-44444444442222222222----------2----------2-|
d-x-x-44444444442222222222---5-0-2--2---5-0-2--2-|
a-x-x-22222222220000000000---5-0-2--0---5-0-2--0-|
D-x-x------------------------5-0-2------5-0-2----|
guitar 2						   x2
e------------------------------------------------|
b-x-x--------------------------------------------|
g-x-x-44664466446677887788----------2----------2-|
d-x-x------------------------5-0-2--2---5-0-2--2-|
a-x-x-22442244224455665566---5-0-2--0---5-0-2--0-|
D-x-x------------------------5-0-2------5-0-2----|
  both guitars (after 1st chorus only)
e---------|
b---------|
g-4444444-
d-4444444-
a-2222222-
D---------


after second chorus
e--------------------------|
b--------------------------|
g-44-44-44-44--22-22-22-22-|
d-44-44-44-44--22-22-22-22-|
a-22-22-22-44--00-00-00-00-|
D--------------------------|
     Guitar 1 (guitar 2 does solo)
e----------------------------------|
b----------------------------------|
g-44-44-44-44-------------22-22-22-|
d-44-44-44-44-22-22-22-22-22-22-22-|
a-22-22-22-22-22-22-22-22-00-00-00-|
D-------------22-22-22-22----------|

e----------------------|
b----------------------|
g---------2----------2-|
d--5-0-2--2---5-0-2--2-|
a--5-0-2--0---5-0-2--0-|
D--5-0-2------5-0-2----|


the refrain (both guitars)
e-------------------------------------|
b-------------------------------------|
g-55555555-------------------22222222-|
d-55555555-55555555-22222222-22222222-|
a-33333333-55555555-22222222-00000000-|
D----------55555555-22222222----------|

e-------------------------|
b-------------------------|
g-------------------------|
d-5555555-7777777-9999999-|
a-5555555-7777777-9999999-|
D-5555555-7777777-9999999-|


verse again...no distortion

chorus

ending on
e-------------|
b-------------|
g-44-44-44-44-|
d-44-44-44-44-|
a-22-22-22-44-|
D-------------|


www.idlesons.com
Tap to rate this tab
# A B C D E F G H I J K L M N O P Q R S T U V W X Y Z