Song name
# A B C D E F G H I J K L M N O P Q R S T U V W X Y Z

Idlewild - Finished It Remains tab

e|----------------------------------------------------------------|
B|----------------------------------------------------------------|
G|---------------------------------------------17171717-15-14-17--|
D|-10h1212-12h1414-12-121212121212121212121212--------------------|
A|----------------------------------------------------------------|
E|----------------------------------------------------------------|

e|-----------------------------12------12------12------12-|
B|-1515151515151515151515-1010----1010----1010----1010----|
G|--------------------------------------------------------|
D|--------------------------------------------------------|
A|--------------------------------------------------------|
E|--------------------------------------------------------|

e|-1515151515151515-1414141414141414-1515151515151515-1414141414141414-|
B|---------------------------------------------------------------------|
G|---------------------------------------------------------------------|
D|---------------------------------------------------------------------|
A|---------------------------------------------------------------------|
E|---------------------------------------------------------------------|

e|-17171717171717-15-17-15-17h19-191919---------------------------|
B|--------------------------------------17h19-1919-1717-1919-1717-|
G|----------------------------------------------------------------|
D|----------------------------------------------------------------|
A|----------------------------------------------------------------|
E|----------------------------------------------------------------|

e|------17------17------17------17-|
B|-1919----1919----1919----1919----|
G|---------------------------------|
D|---------------------------------|
A|---------------------------------|
E|---------------------------------|

e|-----------------------------------------------------|
B|-----------------------------------------------------|
G|-----------------------------------------------------|
D|-10h1212-12h1414-12121212121212121212-14-12-11-12-11-|
A|-----------------------------------------------------|
E|-----------------------------------------------------|
Tap to rate this tab
# A B C D E F G H I J K L M N O P Q R S T U V W X Y Z