Song name
# A B C D E F G H I J K L M N O P Q R S T U V W X Y Z

Idlewild - Faster tab

Help us improve GuitareTab! Take a short survey!
iDLEWiLD
Faster

Guitar tuned down a step (D, G, C, F, A, D)

Main Riff
D-----------------------------|---------|--------------|-x-x--|
A-----------------------------|-8--8--8-|-8-8-8-8-8--8-|-x-x--|
F--4--4--4--4-4-4-x-3--3--x-x-|-8--8--8-|-8-8-8-8-8--8-|-x-x--|
C--4--4--4--4-4-4-x-3--3--x-x-|-8--8--8-|-8-8-8-8-8--8-|-x-x--|
G--2--2--2--2-2-2-x-1--1--x-x-|-6--6--6-|-6-6-6-6-6--6-|-x-x--|
D-----------------------------|---------|--------------|-x-x--| Play x 4
  x 2                          x 1       x 3            x 1

Chorus Riff
D--------------------------------|
A--------------------------------|
F----------8-8-8-8-9-9-9-9-------|
C--6-6-6-6-8-8-8-8-9-9-9-9-9--8--|
G--6-6-6-6-6-6-6-6-7-7-7-7-9--8--|
D--4-4-4-4-----------------7--6--| Play x 4

Post-Chorus Riff
D----------|
A------3#--|
F----------|
C--6~------|
G--6~------|
D--4~------| Play x 2

Then play Main Riff x 4
Then play Chorus Riff x 4
Then play Post-Chorus Riff x 2
Then play Chorus Riff x 4

Related for Faster tab