Song name
# A B C D E F G H I J K L M N O P Q R S T U V W X Y Z

Idlewild - Quiet Crown tab

Author/Artist: Idlewild
Title: Quiet Crown
Album: 100 Broken Windows
Transcribed by: Greg Harrison
Email: greg_7485@hotmail.com

Standard tuning

------------------------------------------------------------------------------|
------------------------------------------------------------------------------|
-----1--------1---------------------------------------------------------------|
-5-------5--------5--------------1--------------1-----------------------------|
---6-------6--------6--------6--------------8------8--------------------------|
-------------------------4----------4---6-------------------------------------|
 intro

-------------------------------------------------------------------------------------|
-------------------------------------------------------------------------------------|
-------------------------------------------------------------------------------------|
---------8-8-8-8-8-8-8-8-8-8-8-12-12-12-12-12-12-12-10-10-10---8-------10-10-10-8----|
---------8-8-8-8-8-8-8-8-8-8-8-12-12-12-12-12-12-12-10-10-10---8-------10-10-10-8----|
---------6-6-6-6-6-6-6-6-6-6-6-10-10-10-10-10-10-10--8--8--8---6--------8--8--8-6----|
 bridge-        what should i take with me to the north its the good north

------------------------------------------------------------------------------|
------------------------------------------------------------------------------|
-8----------------------------------------------------------------------------|
-8-x8----8------6-------------------------------------------------------------|
-6-------8-x8---6--x16--------------------------------------------------------|
---------6------4-------------------------------------------------------------|
 chorus-just strum these chords
Tap to rate this tab
# A B C D E F G H I J K L M N O P Q R S T U V W X Y Z