Song name
# A B C D E F G H I J K L M N O P Q R S T U V W X Y Z

Idlewild - You Held The World In Your Arms tab

----------------------------------------------------------------------------
		You Held The World In Your Arms - Idlewild
----------------------------------------------------------------------------
tabbed by: acoustic-fish
tuning: EADGBe (standard)

great song.. There are actually two guitars and a keyboard in this song, but I have 
the keyboard for guitar

intro:
guitar one (rhythm):
 e|-----------------------------------------------------------------|
 B|-----------------------------------------------------------------|
 G|-6-6-6-6-6-6-6-6-----------------4-4-4-4-4-4-4-4-----------------|
 D|-6-6-6-6-6-6-6-6-2-2-2-2-2-2-2-2-4-4-4-4-4-4-4-4-7-7-7-7-7-7-7-7-|
 A|-4-4-4-4-4-4-4-4-2-2-2-2-2-2-2-2-2-2-2-2-2-2-2-2-7-7-7-7-7-7-7-7-|
 E|-----------------0-0-0-0-0-0-0-0-----------------5-5-5-5-5-5-5-5-|

guitar two (lead):
 e|-----------------------------------------------------------------|
 B|-----------------------------------------------------------------|
 G|-----------------------------------------------------------------|
 D|-11----------13--13h14p13----13--13h14p13----13--11--------------|
 A|-------------------------14--------------14------------------14--|
 E|-----------------------------------------------------------------|

guitar three (keyboard):
 e|-9-----------11--11h12p11----11--11h12p11----11--9---------------|
 B|-------------------------12--------------12------------------12--|
 G|-----------------------------------------------------------------|
 D|-----------------------------------------------------------------|
 A|-----------------------------------------------------------------|
 E|-----------------------------------------------------------------|

(play intro twice)

verse one:
guitar one:
 e|-----------------------------------------------------------------|
 B|-----------------------------------------------------------------|
 G|-6-6-6-6-6-6-6-6---------4-4-4-4-6-6-6-6-6-6-6-6---------4-4-4-4-|
 D|-6-6-6-6-6-6-6-6-7-7-7-7-4-4-4-4-6-6-6-6-6-6-6-6-7-7-7-7-4-4-4-4-|
 A|-4-4-4-4-4-4-4-4-7-7-7-7-2-2-2-2-4-4-4-4-4-4-4-4-7-7-7-7-2-2-2-2-|
 E|-----------------5-5-5-5-------------------------5-5-5-5---------|

guitar two:
 e|-----------------------------------------------------------------|
 B|-----------------------------------------------------------------|
 G|-----13--11--9-----------------------13--11--9-------------------|
 D|-11-----------11-11h12p11--------11-----------11-11h12p11--------|
 A|-------------------------12------------------------------12------|
 E|-----------------------------------------------------------------|

guitar three:
 e|-----16--14-12-----------19-19-------16--14-12-----------19-19---|
 B|-14-----------14-14h15p14--------14-----------14-14h15p14--------|
 G|------------------------------16------------------------------16-|
 D|-----------------------------------------------------------------|
 A|-----------------------------------------------------------------|
 E|-----------------------------------------------------------------|

(play verse three times)

bridge:
guitar one:
 e|-----------------------------------------------------------------|
 B|-----------------------------------------------------------------|
 G|-----------------6-6-6-6-4-4-4-4-----------------6-6-6-6-4-4-4-4-|
 D|-7-7-7-7-7-7-7-7-6-6-6-6-4-4-4-4-7-7-7-7-7-7-7-7-6-6-6-6-4-4-4-4-|
 A|-7-7-7-7-7-7-7-7-4-4-4-4-2-2-2-2-7-7-7-7-7-7-7-7-4-4-4-4-2-2-2-2-|
 E|-5-5-5-5-5-5-5-5-----------------5-5-5-5-5-5-5-5-----------------|

guitar two:
 e|-----------------------------------------------------------------|
 B|---------------------------------------------------------------12|
 G|14-13--14-13---14-13--14-13------14-13--14-13---14-13--14-13-----|
 D|-----11-----11------11-----11-14------11-----11------11-----11---|
 A|-----------------------------------------------------------------|
 E|-----------------------------------------------------------------|

guitar three:
 e|17-16--17-16---17-16--17-16------17-16--17-16---17-16--17-16--18~|
 B|-----14-----14------14-----15-17~-----14-----14------14-----14---|
 G|-----------------------------------------------------------------|
 D|-----------------------------------------------------------------|
 A|-----------------------------------------------------------------|
 E|-----------------------------------------------------------------|

(play bridge twice)

chorus one:
guitar one:
 e|-----------------------------------------------------------------|
 B|-----------------------------------------------------------------|
 G|-6-6-6-6-6-6-6-6-----------------4-4-4-4-4-4-4-4-----------------|
 D|-6-6-6-6-6-6-6-6-2-2-2-2-2-2-2-2-4-4-4-4-4-4-4-4-7-7-7-7-7-7-7-7-|
 A|-4-4-4-4-4-4-4-4-2-2-2-2-2-2-2-2-2-2-2-2-2-2-2-2-7-7-7-7-7-7-7-7-|
 E|-----------------0-0-0-0-0-0-0-0-----------------5-5-5-5-5-5-5-5-|

guitar two:
 e|-----------------------------------------------------------------|
 B|-----------------------------------------------------------------|
 G|-----------------------------------------------------------------|
 D|-11----------13--13h14p13----13--13h14p13----13--11--------------|
 A|-------------------------14--------------14------------------14--|
 E|-----------------------------------------------------------------|

guitar three:
 e|-9-----------11--11h12p11----11--11h12p11----11--9---------------|
 B|-------------------------12--------------12------------------12--|
 G|-----------------------------------------------------------------|
 D|-----------------------------------------------------------------|
 A|-----------------------------------------------------------------|
 E|-----------------------------------------------------------------|


(play chorus twice)


verse two:
guitar one:
 e|-----------------------------------------------------------------|
 B|-----------------------------------------------------------------|
 G|-6-6-6-6-6-6-6-6---------4-4-4-4-6-6-6-6-6-6-6-6---------4-4-4-4-|
 D|-6-6-6-6-6-6-6-6-7-7-7-7-4-4-4-4-6-6-6-6-6-6-6-6-7-7-7-7-4-4-4-4-|
 A|-4-4-4-4-4-4-4-4-7-7-7-7-2-2-2-2-4-4-4-4-4-4-4-4-7-7-7-7-2-2-2-2-|
 E|-----------------5-5-5-5-------------------------5-5-5-5---------|

guitar two:
 e|-----------------------------------------------------------------|
 B|-----------------------------------------------------------------|
 G|-----13--11--9-----------------------13--11--9-------------------|
 D|-11-----------11-11h12p11--------11-----------11-11h12p11--------|
 A|-------------------------12------------------------------12------|
 E|-----------------------------------------------------------------|

guitar three:
 e|-----16--14-12-----------19-19-------16--14-12-----------19-19---|
 B|-14-----------14-14h15p14--------14-----------14-14h15p14--------|
 G|------------------------------16------------------------------16-|
 D|-----------------------------------------------------------------|
 A|-----------------------------------------------------------------|
 E|-----------------------------------------------------------------|

(play verse four times)

bridge:
guitar one:
 e|-----------------------------------------------------------------|
 B|-----------------------------------------------------------------|
 G|-----------------6-6-6-6-4-4-4-4-----------------6-6-6-6-4-4-4-4-|
 D|-7-7-7-7-7-7-7-7-6-6-6-6-4-4-4-4-7-7-7-7-7-7-7-7-6-6-6-6-4-4-4-4-|
 A|-7-7-7-7-7-7-7-7-4-4-4-4-2-2-2-2-7-7-7-7-7-7-7-7-4-4-4-4-2-2-2-2-|
 E|-5-5-5-5-5-5-5-5-----------------5-5-5-5-5-5-5-5-----------------|

guitar two:
 e|-----------------------------------------------------------------|
 B|---------------------------------------------------------------12|
 G|14-13--14-13---14-13--14-13------14-13--14-13---14-13--14-13-----|
 D|-----11-----11------11-----11-14------11-----11------11-----11---|
 A|-----------------------------------------------------------------|
 E|-----------------------------------------------------------------|

guitar three:
 e|17-16--17-16---17-16--17-16------17-16--17-16---17-16--17-16--18~|
 B|-----14-----14------14-----15-17~-----14-----14------14-----14---|
 G|-----------------------------------------------------------------|
 D|-----------------------------------------------------------------|
 A|-----------------------------------------------------------------|
 E|-----------------------------------------------------------------|

(play bridge twice)


chorus two part one:
guitar one:
 e|-----------------------------------------------------------------|
 B|-----------------------------------------------------------------|
 G|-6-6-6-6-6-6-6-6-----------------4-4-4-4-4-4-4-4-----------------|
 D|-6-6-6-6-6-6-6-6-2-2-2-2-2-2-2-2-4-4-4-4-4-4-4-4-7-7-7-7-7-7-7-7-|
 A|-4-4-4-4-4-4-4-4-2-2-2-2-2-2-2-2-2-2-2-2-2-2-2-2-7-7-7-7-7-7-7-7-|
 E|-----------------0-0-0-0-0-0-0-0-----------------5-5-5-5-5-5-5-5-|

guitar two:
 e|-----------------------------------------------------------------|
 B|-----------------------------------------------------------------|
 G|-----------------------------------------------------------------|
 D|-11----------13--13h14p13----13--13h14p13----13--11--------------|
 A|-------------------------14--------------14------------------14--|
 E|-----------------------------------------------------------------|

guitar three:
 e|-9-----------11--11h12p11----11--11h12p11----11--9---------------|
 B|-------------------------12--------------12------------------12--|
 G|-----------------------------------------------------------------|
 D|-----------------------------------------------------------------|
 A|-----------------------------------------------------------------|
 E|-----------------------------------------------------------------|

chorus two part two:
guitar one:
 e|-----------------------------------------------------------------|
 B|-----------------------------------------------------------------|
 G|-6-6-6-6-6-6-6-6-----------------4-4-4-4-4-4-4-4-----------------|
 D|-6-6-6-6-6-6-6-6-2-2-2-2-2-2-2-2-4-4-4-4-4-4-4-4-7-7-7-7-7-7-7-7-|
 A|-4-4-4-4-4-4-4-4-2-2-2-2-2-2-2-2-2-2-2-2-2-2-2-2-7-7-7-7-7-7-7-7-|
 E|-----------------0-0-0-0-0-0-0-0-----------------5-5-5-5-5-5-5-5-|

guitar two:
 e|-----------------------------------------------------------------|
 B|-----------------------------------------------------------------|
 G|-----------------------------------------------------------------|
 D|-11----------13--13h14p13----13--13h14p13----13--11--------------|
 A|-------------------------14--------------14------------------14--|
 E|-----------------------------------------------------------------|

guitar three:
 e|-9-----------11--11h12p11----11--11h12p11---11--9----------------|
 B|-------------------------12--------------12------12-11-9--9-11-12|
 G|--------------------------------------------------------12-------|
 D|-----------------------------------------------------------------|
 A|-----------------------------------------------------------------|
 E|-----------------------------------------------------------------|

(play chorus twice)


solo:
guitar one:
 e|-----------------------------------------------------------------|
 B|-----------------------------------------------------------------|
 G|-6-6-6-6-6-6-6-6-----------------4-4-4-4-4-4-4-4-----------------|
 D|-6-6-6-6-6-6-6-6-2-2-2-2-2-2-2-2-4-4-4-4-4-4-4-4-7-7-7-7-7-7-7-7-|
 A|-4-4-4-4-4-4-4-4-2-2-2-2-2-2-2-2-2-2-2-2-2-2-2-2-7-7-7-7-7-7-7-7-|
 E|-----------------0-0-0-0-0-0-0-0-----------------5-5-5-5-5-5-5-5-|

(guitar one plays times while guitars two and three play the solo)


guitar two:
 e|-----------------------------------------------------------------|
 B|-----------------------------------------------------------------|
 G|-----------------------------------------------------------------|
 D|-11-/-14-13-11----9-/-14-13-11---9-----------13--11--------------|
 A|-----------------------------------------------------------------|
 E|-----------------------------------------------------------------|

guitar three:
 e|-9-----------11--11h12p11----11--11h12p11---11--9---21-----------|
 B|-------------------------12--------------12----------------------|
 G|-----------------------------------------------------------------|
 D|-----------------------------------------------------------------|
 A|-----------------------------------------------------------------|
 E|-----------------------------------------------------------------|


guitar two:
 e|-----------------------------------------------------------------|
 B|-----------------------------------------------------------------|
 G|-----------------------------------------------------------------|
 D|-11-/-14-13-11----9-/-14-13-11---9-----------13--11--------------|
 A|-----------------------------------------------------------------|
 E|-----------------------------------------------------------------|

guitar three:
 e|-9-----------11--11h12p11----11--11h12p11---11--9---21-----------|
 B|-------------------------12--------------12----------------------|
 G|-----------------------------------------------------------------|
 D|-----------------------------------------------------------------|
 A|-----------------------------------------------------------------|
 E|-----------------------------------------------------------------|


guitar two:
 e|-----------------------------------------------------------------|
 B|-----------------------------------------------------------------|
 G|-----------------------------------------------------------------|
 D|-14-14-14-13-11--9--/--18--------16--------14-16-18--------------|
 A|-----------------------------------------------------------------|
 E|-----------------------------------------------------------------|

guitar three:
 e|-12-12-12-11--9----------------------------------9---------------|
 B|----------------12---------------12---------9-12-----------------|
 G|-----------------------------------------------------------------|
 D|-----------------------------------------------------------------|
 A|-----------------------------------------------------------------|
 E|-----------------------------------------------------------------|


guitar two:
 e|-----------------------------------------------------------------|
 B|-----------------------------------------------------------------|
 G|-----------------------------------------------------------------|
 D|-11----------13--13h14p13----13--13h14p13----13--11--------------|
 A|-------------------------14--------------14------------------14--|
 E|-----------------------------------------------------------------|

guitar three:
 e|-----------------------------------------------------------------|
 B|-12-9-9-10-9-9-10-9-9-10-9-9-10-------9-------9------------------|
 G|--------------------------------11-11---11-11---9-11-9-8-9-8-6-8-|
 D|-----------------------------------------------------------------|
 A|-----------------------------------------------------------------|
 E|-----------------------------------------------------------------|

chorus three:
guitar one:
 e|-----------------------------------------------------------------|
 B|-----------------------------------------------------------------|
 G|-6-6-6-6-6-6-6-6-----------------4-4-4-4-4-4-4-4-----------------|
 D|-6-6-6-6-6-6-6-6-2-2-2-2-2-2-2-2-4-4-4-4-4-4-4-4-7-7-7-7-7-7-7-7-|
 A|-4-4-4-4-4-4-4-4-2-2-2-2-2-2-2-2-2-2-2-2-2-2-2-2-7-7-7-7-7-7-7-7-|
 E|-----------------0-0-0-0-0-0-0-0-----------------5-5-5-5-5-5-5-5-|

guitar two:
 e|-----------------------------------------------------------------|
 B|-----------------------------------------------------------------|
 G|-----------------------------------------------------------------|
 D|-11----------13--13h14p13----13--13h14p13----13--11--------------|
 A|-------------------------14--------------14------------------14--|
 E|-----------------------------------------------------------------|

guitar three:
 e|-9-----------11--11h12p11----11--11h12p11----11--9---------------|
 B|-------------------------12--------------12------------------12--|
 G|-----------------------------------------------------------------|
 D|-----------------------------------------------------------------|
 A|-----------------------------------------------------------------|
 E|-----------------------------------------------------------------|

(play chorus four times)

on the fourth time, guitar three plays:
 e|-9-----------11--11h12p11----11--11h12p11---11--9----------------|
 B|-------------------------12--------------12------12-11-9--9-11-12|
 G|--------------------------------------------------------12-------|
 D|-----------------------------------------------------------------|
 A|-----------------------------------------------------------------|
 E|-----------------------------------------------------------------|

end on:
guitar one:
 e|-----------------------------------------------------------------|
 B|-----------------------------------------------------------------|
 G|-6~~-------------------------------------------------------------|
 D|-6~~-------------------------------------------------------------|
 A|-4~~-------------------------------------------------------------|
 E|-----------------------------------------------------------------|


enjoy!

lyrics:
=======
       verse one:
every face, even the one you saw yesterday
it looks different today, cos everything's changed since yesterday
in every possible way, things seem different today
not like yesterday

       bridge:
is consideration more like an acception of consideration?

       chorus one:
cos you have the world in your arms tonight
and what if you held the world in your arms?

       verse two:
when you're secure, do you feel much safer?
when days never change, and it's three years later
it's like your life hasn't changed,
and it's three years late
how does it feel, to be three years late?
and watching your youth drift away
what seems different, seems different today
and what seems different, seems different today

       bridge:
is consideration more like an exception of consideration?

       chorus two:
cos you have the world in your arms tonight
and what if you held the world in your arms?
you held the world in your arms tonight
and what if you held the world in your arms?
tonight
tonight

       chorus three:
cos you held the world in your arms tonight
and what if you held the world in your arms?
cos you held the world in your arms tonight
and what if you held the world in your arms?
============================================================================
| /  slide up
| \  slide down
| h  hammer-on
| p  pull-off
| ~  vibrato
| +  harmonic
| x  Mute note
============================================================================
Tap to rate this tab
# A B C D E F G H I J K L M N O P Q R S T U V W X Y Z