Song name
# A B C D E F G H I J K L M N O P Q R S T U V W X Y Z

Idlewild - Too Long Awake tab

Help us improve GuitareTab! Take a short survey!
Band : Idlewild
Song : Too Long Awake (reprise)
Album: Warnings Promises
Tabbed By: Calum (afirock74@hotmail.com)

Capo on 2nd

x   - Palm Mute
b   - Bend
b~  - Bend Up Then Down
h   - Hammer-On Directly After Note Before
/   - slide


Intro, Guitar 1:
e|--------------------|------------------|
B|--------------------|------------------|
G|------1-------------|----4-------------|
D|---2-----(12x)------|--4----(8x)-------|
A|-2--2---------------|-2-2--------------|
E|-0--0---------------|------------------|


Intro, Guitar 2 (finger pick):
e|------------------------------------------------------------------------------------|
B|-0----0--2----2---4----4---5-4-2-0-2/4---2---2/4---2---2/4---2---2/4---2---5-4-2-0--|
G|--1--1-1--1--1-1---1--1-1-----------------------------------------------------------|
D|------------------------------------------------------------------------------------|
A|-----------------------------------2----2--2------2--2------2--2------2--2----------|
E|------------------------------------------------------------------------------------|


Pre Chorus Guitar 1:
e|-------------------------------------|
B|------2------------------------------|
G|--2--------------------------4-------|
D|-2--2---(8x)------6--------4---(4x)--|
A|-0--0-----------7---(4x)-2--2--------|
E|--------------4--4-------------------|


Pre Chorus Guitar 2:
e|-----------------------------|-----------------------------------|
B|-0----0-----0---0-0-0-0------|-0-------------0-----0-----0-----0-|
G|--2--2-2-2/4-4/6-4-2----(2x)-|--1----1-----4-----4-----4-----4---|
D|-----------------------------|------------4-4---4-4---4-4---4-4--|
A|-----------------------------|-----------------------------------|
E|-----------------------------|-----------------------------------|


Chorus Guitar 1:
e|-------0---------------------|
B|-----------------------------|
G|---1-------1-------2---------|
D|-2---2---2---2---2-------2---|
A|-2---2---2---2--0-0---2/4-4--| (4x)
E|-0---0---0---0---------------|


Chorus Guitar 2:
e|---------------------|
B|-5-----5---------4---|
G|--4---4-4-4/6---6-6--| (4x)
D|---------------------|
A|---------------------|
E|---------------------|

Bridge Guitar 1:



Outro Guitar 1:
e|-----------------|
B|-----------------|
G|------1----------|
D|---2-----(12x)---|
A|-2--2------------|
E|-0--0------------|


Outro Guitar 2:
e|-2--2--2--4--2--2--|----------------------------------|
B|--5--5--5--5--5--5-|----------------------------------|
G|---4--4-----4--4---|----------------------------------|
D|-------------------|---6--2-4-4/6-4-2------2----------|
A|-------------------|------------------2-2/4--4-2-(4x)-|
E|-------------------|----------------------------------|


End On:
e|-------------|----------------|
B|-------------|----------------|
G|-1-----------|---4------------|
D|-2-----------|---6------------|
A|-2--Guitar 1-|---7--Guitar 2--|
E|-0-----------|----------------|
Related for Too Long Awake tab