Guitaretab - guitar tabs
Song name
# A B C D E F G H I J K L M N O P Q R S T U V W X Y Z

Idlewild - Queen Of The Troubled Teens tab

iDLEWiLD
Queen Of The Troubled Teens

Guitar tuned down a step (D, G, C, F, A, D)



Verse Riff
He can't take it all in...
D-----------------------------------------------------------|
A-----------------------------------------------------------|
F----------------7--7-7--7-7-7---------------5--5-5--5-5-5--|
C--8--8-8--8-8-8-7--7-7--7-7-7-5--5-5--5-5-5-5--5-5--5-5-5--|
G--8--8-8--8-8-8-5--5-5--5-5-5-5--5-5--5-5-5-3--3-3--3-3-3--|
D--6--6-6--6-6-6---------------3--3-3--3-3-3----------------| Play x 4

Bridge Riff
D-------1-1-1-1-|
A---------------|
F---------------|
C--3~-----------|
G--3~-----------|
D--1~-----------| Play x 4
[ Tab from: http://www.guitaretab.com/i/idlewild/91485.html ]
Chorus Riff
Pull out his eyes and apologise!
D---------------------------|--------------------------|
A---------------------------|--------------------------|
F---------------------------|--------------------------|
C-3--x-6--6-x--8--8-8--8--8-|--8--8--8--8--8--8--8--8--|
G-3--x-6--6-x--8--8-8--8--8-|--8--8--8--8--8--8--8--8--|
D-1--x-4--4-x--6--6-6--5--6-|--6--5--6--5--6--5--6--5--| Play x 2
  x 3                         x 1 (don't play second time around on first Chorus)

Then play Verse Riff x 4
Then play Bridge Riff x 4
Then play Chorus Riff x 2

Break Riff
He can't take it all in...
D----1-1--1-x-x----5-5--5-x-x----3-3--3-x-x----3-3--3-x-x--|
A----3-3--3-x-x----6-6--6-x-x----3-3--3-x-x----5-5--5-x-x--|
F----3-3--3-x-x----7-7--7-x-x----4-4--4-x-x----5-5--5-x-x--|
D-3--3-3--3-x-x-7--7-7--7-x-x----5-5--5-x-x-5--5-5--5-x-x--|
A-1--1-1--1-x-x-5--5-5--5-x-x-5--5-5--5-x-x-3--3-3--3-x-x--|
F-----------------------------3--3-3--3-x-x----------------| Play x 2

Then play Verse Riff x 4
Then play Bridge Riff x 4
End on (just random pickscrapes after the chord):
C--3~--|
G--3~--|
D--1~--|

Related for Queen Of The Troubled Teens tab
Advertisement will be closed in 10 seconds