Song name
# A B C D E F G H I J K L M N O P Q R S T U V W X Y Z

Idlewild - Youve Lost Your Way tab

iDLEWiLD
You've Lost Your Way

Guitar tuned half a step down (Eb, Ab, Db, Gb, Bb, Eb)

Verse Riff
You say you're taking me over...
Eb---------------------------------|
Bb---------------------------------|
Gb--2--x--5--5-5-5-----------------|
Db--2--x--5--5-5-5-3--x--6--6-6-6--|
Ab--0--x--3--3-3-3-3--x--6--6-6-6--|
Eb-----------------1--x--4--4-4-4--| Play x 4

Bridge Riff
Eb----------------------------------------------------------|
Bb----------------------------------------------------------|
Gb----------------------------------------------------------|
Db-2--2--2-2-2-2-2--2--2-2-2-2-3--3--3-3-3-3-3--3--3-3-3-3--|
Ab-2--2--2-2-2-2-2--2--2-2-2-2-3--3--3-3-3-3-3--3--3-3-3-3--|
Eb-0--0--0-0-0-0-0--0--0-0-0-0-1--1--1-1-1-1-1--1--1-1-1-1--| Play x 2

Chorus Riff
Eb-------------------------------------------------------------|
Bb-------------------------------------------------------------|
Gb--9--9-9--9-9-9-8--8-8--8-8-8-4--x--5--5-5-5-----------------|
Db------------------------------4--x--5--5-5-5-3--x--2--2-2-2--|
Ab--7--7-7--7-7-7-6--6-6--6-6-6-2--x--3--3-3-3-3--x--2--2-2-2--|
Eb---------------------------------------------1--x--0--0-0-0--| Play x 4

Break Riff
Db-------------------------------|
Ab-------------------------------|
Eb-0-12-11-12-0-12-11-12-0-0-12--| Play x 6


Then play Verse Riff x 4
Then play Bridge Riff x 2
The play Chorus Riff x 4
End on:
Db--7/--|
Ab--7/--|
Eb--5/--|

Tap to rate this tab
# A B C D E F G H I J K L M N O P Q R S T U V W X Y Z