Song name
# A B C D E F G H I J K L M N O P Q R S T U V W X Y Z

Idlewild - Im A Message tab

iDLEWiLD
I'm A Message

Guitar tuned down half a step (D, G, C, F, A, D)
(Bass Intro)

(verse riff)
I am the best message out of the rest of them...
Eb----------------------------------|
Bb---7---7---7---7---8---8---8---8--|
Gb-7---7---7---7---7---7---7---7----|
Db----------------------------------|
Ab----------------------------------|
Eb----------------------------------| Play x 10


(Chorus riff A)
You're selling your soul...
Eb----------------------------------:
Bb----------------------------------:
Gb----------------------------------:
Db-7-7-7-7-7-7-7-7------------------:
Ab-5-5-5-5-5-5-5-5-5-5-5-5-5-5-5-5--:
Eb-----------------3-3-3-3-3-3-3-3--:

:-----------------------------------|
:-----------------------------------|
:-----------------------------------|
:-----------------------------------|
:--7-7-7-7-7-7-7-7-9-9-9-9-9-9-9-9--|
:--5-5-5-5-5-5-5-5-7-7-7-7-7-7-7-7--| Play x 4

(Chorus Riff B, play on top of Riff A)
Eb------------------------------------------:
Bb------------------------------------------:
Gb-7-7-7-7-7-7-7-7-12-12-12-12-12-12-12-12--:
Db------------------------------------------:
Ab-5-5-5-5-5-5-5-5-10-10-10-10-10-10-10-10--:
Eb------------------------------------------:

:------------------------------------------------|
:------------------------------------------------|
:--14-14-14-14-14-14-14-14-16-16-16---14--12--7--|
:------------------------------------------------|
:--12-12-12-12-12-12-12-12-14-14-14---12--10--5--|
Tap to rate this tab
# A B C D E F G H I J K L M N O P Q R S T U V W X Y Z