Guitaretab - guitar tabs
Song name
# A B C D E F G H I J K L M N O P Q R S T U V W X Y Z

If All Else Fails - Forever Free tab

Song:Forever Free
Band:If All Else Fails
Album:Forever Free: A Sublime Tribute Album

Tabbed by:Bobby-Jimmy
Email: middlefingerresponse21@hotmail.com

A beautiful song. This was actually a poem written by Bradley
Nowells cousin and read at his funeral. 


Intro: 2X
e|----------------------------------|
B|-222---555---777--6---------------|
G|-333-\-666---777--6---------------|
D|-444-\-777---777--6---------------|
A|-444-\-777---555--4---------------|
E|-222-\-555------------------------|
[ Tab from: http://www.guitaretab.com/i/if-all-else-fails/143504.html ]
Verse 8X (I know you'll miss me...) 0:13
e|------------------------------|
B|--2-2---5-5-/-----------------|
G|--2-2---4-4-/-----------------|
D|------------------------------|
A|------------------------------|
E|------------------------------|

Chorus  (Please dont cry for me...) 0:40
e|------------------------------|
B|--7-7---2-2-------------------|
G|--6-6---2-2-------------------|
D|------------------------------|
A|------------------------------|
E|------------------------------|

Then play Verse 8X (No longer wonder what life, is for...) 1:08
Chorus 8X (Please dont cry for me...) 1:37
Verse 8X (I'm at peace now I see clearly at last...) 2:03
Chorus 8X (Please dont cry for me...) 2:31

Outro (Up here in the sky...) 2:59
e|----------------------------------|
B|-55-5--77-7--9--------------------|
G|-66-6--88-8--10-------------------|
D|-77-7--99-9--11-------------------|
A|-77-7--99-9--11-------------------|
E|-55-5--77-7--9--------------------|


4/22/06
Advertisement will be closed in 10 seconds