Guitaretab - guitar tabs
Song name
# A B C D E F G H I J K L M N O P Q R S T U V W X Y Z

If Hope Dies - Anthem For The Unemployable tab

D --------------------------------------------------------------------------|
A -----3-3----6--6------------3---------------------------------------------|
D ----------5---5-----3-1-0-----0-1-----------------------------------------|
G --------------------------------------------------------------------------|
B --------------------------------------------------------------------------|
E --------------------------------------------------------------------------|
[ Tab from: http://www.guitaretab.com/i/if-hope-dies/100943.html ]
D --------------------------------------------------------------------------|
A -----3-3----6--6----------------------------------------------------------|
D ----------5---5----8-6-5-1-3----------------------------------------------|
G --------------------------------------------------------------------------|
B --------------------------------------------------------------------------|
E --------------------------------------------------------------------------|

Play this 4 times
Related for Anthem For The Unemployable tab
Advertisement will be closed in 10 seconds