Song name
# A B C D E F G H I J K L M N O P Q R S T U V W X Y Z

Iggy And The Stooges - Passenger tab

Band Name: Iggy and the stooges
Song Name: The Passenger
Tabbed By: Terry Sims (Masterofdarknes)
Email: Floyd_Fan89@teenspot.com

Tuning: Normal

Main riff

e|--0--0--0-----1--1--1-----0--0--0-----3--3--3--||------------------|
B|--1--1--1--x--1--1--1-----1--1--1--x--3--3--3--||------------------|
G|--2--2--2--x--2--2--2--x--0--0--0--x--0--0--0--||------------------|
D|--2--2--2--x--3--3--3--x--2--2--2--x--0--0--0--||------------------|
A|--0--0--0-----3--3--3-----3--3--3-----2--2--2--||------------------|
E|--------------1--1--1-----------------3--3--3--||------------------|

e|--0--0--0----0--0--0-----------------------------------------------|
B|--1--1--1----0--0--0-----------------------------------------------|
G|--0--0--0----1--1--1-----------------------------------------------|
D|--2--2--2----2--2--2-----------------------------------------------|
A|--3--3--3----2--2--2-----------------------------------------------|
E|-------------0--0--0-----------------------------------------------|

End, Any comments or crit then email me on Floyd_Fan89@teenspot.com or pm me.
Thanks.
Tap to rate this tab
# A B C D E F G H I J K L M N O P Q R S T U V W X Y Z