Song name
# A B C D E F G H I J K L M N O P Q R S T U V W X Y Z

Iggy And The Stooges - Penetration tab

-------------------------------------------------------------------------------
			     Penetration - Iggy and the Stooges
-------------------------------------------------------------------------------
Tabbed by: maxduffs
Email: maxduffield@hotmail.co.uk

Tuning: Standard (EADGBe)

I noticed the other tab for this song was slightly wrong. This is how I play it:

notes in brackets are optional (but sound cool)

e|--------------(0)----------------------------------------------------------|
B|---------------1-----------------------------------------------------------|
G|--------0h2---(0)---------0h2--0----------------0h2--0----------------0-2--|
D|------------------------------------2---------------------------2-0-2------|
A|--0-0----------------0-----------0---------0-0----------0-3-0-3------------|
E|---------------------------------------------------------------------------|

e|---------------------------------------------------------------------------|
B|---------------------------------------------------------------------------|
G|-------0h2--0-----0h2--0---------------0h2--0----------------0-2-----------|
D|-----------------------------2-------------------------2-0-2---------------|
A|--0-0----------0----------0-------0-0----------0-3-0-3---------------------|
E|---------------------------------------------------------------------------|



e|--------------(0)----------------------------------------------------------|
B|---------------1-----------------------------------------------------------|
G|--------0h2---(0)---------0h2--0----------------0h2--0----------------0-2--|
D|------------------------------------2---------------------------2-0-2------|
A|--0-0----------------0-----------0---------0-0----------0-3-0-3------------|
E|---------------------------------------------------------------------------|

e|---------------------------------------------------------------------------|
B|---------------------------------------------------------------------------|
G|-------0h2--0-----0h2--0---------------0h2--0----------------0-2-----------|
D|-----------------------------2-------------------------2-0-2---------------|
A|--0-0----------0----------0-------0-0----------0-3-0-3---------------------|
E|---------------------------------------------------------------------------|


This is the riff for the entire song, just keep repeating it.
 
Tap to rate this tab
# A B C D E F G H I J K L M N O P Q R S T U V W X Y Z