Guitaretab - guitar tabs
Song name
# A B C D E F G H I J K L M N O P Q R S T U V W X Y Z

Iggy And The Stooges - Gimme Danger tab

Damn! i never found the right tab for this song so i started to polish my ears 
and i got this.. its not complete yet

The notes:
E D C A
The TABS for the intro:
-------------------------------------------------------------------------------
			     GIMME DANGER - Iggy and The Stooges
-------------------------------------------------------------------------------
Tabbed by: Israel Bonanza
Email:slipperman77@hotmail.com

ITS INCOMPLETE.. FOR NOW

Tuning:Standard
[ Tab from: http://www.guitaretab.com/i/iggy-and-the-stooges/185627.html ]
INTRO
e|-x--2-0---x--0-------3-----------------------------------------------------|
B|-x-----0--3---3-------3----------------------------------------------------|
G|-x--------2----2----------2------------------------------------------------|
D|-2--------0--------2------2------------------------------------------------|
A|-2-----------------3----3-0------------------------------------------------|
E|-0-------------------------------------------------------------------------|

MAIN : repeat 4 times, then start singing
e|---------------------------------------------------------------------------|
B|----------------------------0----------------------------------------------|
G|-x---0--0-----------------0------------------------------------------------|
D|-x---4--2--------0------0--------------------------------------------------|
A|-2---x--x------0---0--3----------------------------------------------------|
E|-0---0--0--3-0-------------------------------------------------------------|
Related for Gimme Danger tab
Advertisement will be closed in 10 seconds