Song name
# A B C D E F G H I J K L M N O P Q R S T U V W X Y Z

Iggy And The Stooges - Shake Appeal tab

-------------------------------------------------------------------------------
			     Shake Appeal - Iggy And The Stooges
-------------------------------------------------------------------------------
Tabbed by: Xeus
Email:tomytomtom@hotmail.com

Tuning: standard e

a real cool old school punk song thats simple and fun to play

main riff
e|-----------------|---------------------------------------------|
B|-----------------|---------------------------------------------|
G|-----------------|-3333----------------------------------------|
D|3-33---------1-x3|-3333----------------------------------------|
A|3-33-----1-3-----|-1111----------------------------------------|
E|1-11-1-3---------|---------------------------------------------|
   

a little lick that is present every now and then
e|-----------------------------------------------------------------------|
B|-----------------------------------------------------------------------|
G|-33--------------------------------------------------------------------|
D|-33--------------------------------------------------------------------|
A|-11-3431---------------------------------------------------------------|
E|-----------------------------------------------------------------------|


thats it so far, just repeat that a load of times
As for the solo-thing, im working on that and should have it up soon.
Enjoy
Tap to rate this tab
# A B C D E F G H I J K L M N O P Q R S T U V W X Y Z