Song name
# A B C D E F G H I J K L M N O P Q R S T U V W X Y Z

Iggy And The Stooges - Raw Power tab

-------------------------------------------------------------------------------
			     Raw Power - Iggy And The Stooges
-------------------------------------------------------------------------------
Tabbed by: Xeus
Email:tomytomtom@hotmail.com

Tuning: standard

another classic 



MAIN RIFF
e|---------------------------------------------------------------------------|
B|---------------------------------------------------------------------------|
G|-------------------7--3----------------------------------------------------|
D|--5-5-5-5-5-5-5-5--7--3----------------------------------------------------|
A|--3-3-5-3-3-3-5-3--5--1----------------------------------------------------|
E|---------------------------------------------------------------------------|

CHORUS   'raw power is a sure to come running to you'
e|---------------------------------------------------------------------------|
B|---------------------------------------------------------------------------|
G|---------------------------------------------------------------------------|
D|--3-3-3-3-7-7-7-7-5-5-5-5-5-5-7-5------------------------------------------|
A|--3-3-3-3-7-7-7-7-5-5-5-5-5-5-7-5------------------------------------------|
E|--1-1-1-1-5-5-5-5-3-3-3-3-3-3-5-3------------------------------------------|

BRIDGE
e|---------------------------------------------------------------------------|
B|---------------------------------------------------------------------------|
G|--------------------------------7--3---------------------------------------|
D|--6-6-6-6-X4---5-5-5-5-5-5-5-5--7--3---------------------------------------|
A|--6-6-6-6------3-3-5-3-3-3-5-3--5--1---------------------------------------|
E|--4-4-4-4------------------------------------------------------------------|


thats it for now... just impro the solo
Tap to rate this tab
# A B C D E F G H I J K L M N O P Q R S T U V W X Y Z