Song name
# A B C D E F G H I J K L M N O P Q R S T U V W X Y Z

Iggy Pop - Wild America tab

Wild America by Iggy Pop

Tabbed by Ringo, Derby, UK

Listen to the song to get the Rhythm, and during the verse quickly release the bar 
after playing them. The Verse part is played throughout the rest of the song.

This is the first tab Ive submitted so Im not positive that its right Any 
welcome

Intro
    G               F#
e |-3-3-3-3-3-3-3-3-2-2-2-2-2-2-2-2-|
b |-3-3-3-3-3-3-3-3-2-2-2-2-2-2-2-2-|
g |-4-4-4-4-4-4-4-4-3-3-3-3-3-3-3-3-|
d |-5-5-5-5-5-5-5-5-4-4-4-4-4-4-4-4-|
a |-5-5-5-5-5-5-5-5-4-4-4-4-4-4-4-4-|
e |-3-3-3-3-3-3-3-3-2-2-2-2-2-2-2-2-|

Verse (repeated)
         G
e |-33-3-3-3-------3-----|
b |-33-3-3-3-------3-----|
g |-44-4-4-4-----3---3---|
d |-55-5-5-5-3-5-------3-|
a |-55-5-5-5-------------|
e |-33-5-5-5-------------|
Tap to rate this tab
# A B C D E F G H I J K L M N O P Q R S T U V W X Y Z