Song name
# A B C D E F G H I J K L M N O P Q R S T U V W X Y Z

Iggy Pop - I Wont Crap Out tab

e-----------------------------------------------------------------|
b-----------------------------------------------------------------|
g------------------------12b14-14-14-14-14-r-14-17b19-14-14-14-\\-|
d-8s7--5s7--9b11--10--7b------------------------------------------|
e-----------------------------------------------------------------|
e-----------------------------------------------------------------|


   A   F   G
e------1---3---|
b--2---1-------|
g--2---2-------|
d--2---3-------|
e----------2---|
e----------3---|

e---------------------------------------------------------------------------|
b---------------------------------------------------------------------------|
g--17-14-10-17--------------------------------------------------------------|
d---------------------------------------------------------------------------|
e---------------------------------------------------------------------------|
e---------------------------------------------------------------------------|

e--------------------------------|
b--20bfade-out-------------------|
g--------------------------------|
d--------------------------------|
e--------------------------------|
e--------------------------------|
Tap to rate this tab
# A B C D E F G H I J K L M N O P Q R S T U V W X Y Z