Song name
# A B C D E F G H I J K L M N O P Q R S T U V W X Y Z

Iggy Pop - Pussy Power tab

e-----------------------------------|
b-----------------------------------|
g-----------------------------------|
d---5-0-xx--5-0-xx-5-0-xx--3--3-----|
a---5-0-xx--5-0-xx-5-0-xx--3--3-----|
e---3-0-xx--3-0-xx-3-0-xx--1--1-----|

e-----------------------------------|
b-----------------------------------|
g-----------------------------------|
d---5-0-xx--5-0-xx-5-0-xx--3--3-----|
a---5-0-xx--5-0-xx-5-0-xx--3--3-----|
e---3-0-xx--3-0-xx-3-0-xx--1--1-----|

e-----------------------------------|
b-----------------------------------|
g-----------------------------------|
d---5-0-xx--5-0-xx-5-0-xx--3--3-----|
a---5-0-xx--5-0-xx-5-0-xx--3--3-----|
e---3-0-xx--3-0-xx-3-0-xx--1--1-----|

e-----------------------------------|
b-----------------------------------|
g-----------------------------------|
d--7--9--10-12----------------------|
a--7--9--10-12----------------------|
e--5--7--8--10----------------------|

e--12p10----12p10-----15----------------|
b--------12-------12--------------------|
g-----------------------------9v--5v-4v-|
d---------------------------------------|
a---------------------------------------|
e---------------------------------------|
Tap to rate this tab
# A B C D E F G H I J K L M N O P Q R S T U V W X Y Z