Song name
# A B C D E F G H I J K L M N O P Q R S T U V W X Y Z

Iggy Pop - Search And Destroy tab

Help us improve GuitareTab! Take a short survey!
                          Search and Destroy
                                 By
                               Iggy Pop

                         Tabbed by: A3r0sm1th

                    Tuning: Standard ( E A D G B e )


                                  Key
                         ----------------------

                              x = Mute
                              / = Slide Up
                              h = Hammer On
                              p = Pull Off
                              b = Bend
                              r = Release
   

          Intro
|---------------------------|
|---------------------------|
|6-6-6-6--x11-11-11-11-9-9--| 
|6-6-6-6--x11-11-11-11-9-9--|
|4-4-4-4--x-9--9--9--9-7-7--|
|---------------------------|x2

|------------------------------------------------|
|------------------------------------------------|
|---9-11-11b-11-9----9-11-9-11b-11p9-11-9-----9--|
|11---------------11----------------------11-----|
|------------------------------------------------|
|------------------------------------------------|

|------------------------------12----12-14b16r14p12----12-14-12--|
|14-14-14-14-12----12----12-14----14----------------14-----------|
|---------------13----13-----------------------------------------|
|----------------------------------------------------------------|
|----------------------------------------------------------------|
|----------------------------------------------------------------|

         Verse 1
|-------------------------|
|-------------------------|
|6-6-6-6-6-9--------------|
|6-6-6-6-6-9--7-7-7—7-7-9-|
|4-4-4-4-4-7--7-7-7-7-7-9-|
|-------------5-5-5-5-5-7-|

“I'm a street walking cheater with a hand full of napalm”


|---------------------------|
|---------------------------|
|6-6-6-6-x11-11-11-11-9-9---|
|6-6-6-6-x11-11-11-11-9-9---|
|4-4-4-4-x-9--9--9--9-7-7---|
|---------------------------|


|-------------------------|
|-------------------------|
|6-6-6-6-6-9--------------|
|6-6-6-6-6-9--7-7-7—7-7-9-|
|4-4-4-4-4-7--7-7-7-7-7-9-|
|-------------5-5-5-5-5-7-|

“I'm a runaway son of a nuclear A-bomb”


|---------------------------|
|---------------------------|
|6-6-6-6-x11-11-11-11-9-9---|
|6-6-6-6-x11-11-11-11-9-9---|
|4-4-4-4-x-9--9--9--9-7-7---|
|---------------------------|


              Chorus 1
|-------------------------------------|
|-------------------------------------|
|6-----6--4-----4--2-----2---2/4-4----|
|4-6-6-4--2-4-4-2--2-2-2-2-2-2/4-4----| 
|4-4-4-4--2-2-2-2--0-2-2-0-2----------|
|--4-4------2-2------0-0---0----------|

   “I am the world's forgotten boy”


|-------------------------------------|
|-------------------------------------|
|6-----6--4-----4--2-----2---2/4-4----|
|4-6-6-4--2-4-4-2--2-2-2-2-2-2/4-4----| 
|4-4-4-4--2-2-2-2--0-2-2-0-2----------|
|--4-4------2-2------0-0---0----------|

  “The one who searches and destroys”


|-------------------------------|
|-------------------------------|
|-------------------------------|
|3/4-4-4--4-4-4-4-4-4-4-------1-|
|3/4-4-4--4-4-4-4-4-4-4---1-4---|
|1/2-2-2--2-2-2-2-2-2-2-4-------|

  “Honey gotta help me please”


|-------------------------------|
|-------------------------------|
|-------------------------------|
|7-7-7-7--7-7-7-7-7-7-7---------|
|7-7-7-7--7-7-7-7-7-7-7-----4-7-|
|5-5-5-5--5-5-5-5-5-5-5-5-7-----|

  “Somebody gotta save my soul”


|-------------------------------|
|-------------------------------|
|-------------------------------|
|2-2-2-2--2-2-2-2-2-2-2---------|
|2-2-2-2--2-2-2-2-2-2-2-----2-4-|
|0-0-0-0--0-0-0-0-0-0-0-2-4-----|

    “Baby, detonate for me”


|--------------------------|
|--------------------------|
|--------------------------|
|6-6-6-6--6-6-6-6—6-6-6----|
|6-6-6-6--6-6-6-6-6-6-6----|
|4-4-4-4--4-4-4-4-4-4-4----|

            “Ow!”


          Verse 2
|-------------------------|
|-------------------------|
|6-6-6-6-6-9--------------|
|6-6-6-6-6-9--7-7-7—7-7-9-|
|4-4-4-4-4-7--7-7-7-7-7-9-|
|-------------5-5-5-5-5-7-|

“Look out honey, 'cause mutant technology”


|---------------------------|
|---------------------------|
|6-6-6-6-x11-11-11-11-9-9---|
|6-6-6-6-x11-11-11-11-9-9---|
|4-4-4-4-x-9--9--9--9-7-7---|
|---------------------------|


|-------------------------|
|-------------------------|
|6-6-6-6-6-9--------------|
|6-6-6-6-6-9--7-7-7—7-7-9-|
|4-4-4-4-4-7--7-7-7-7-7-9-|
|-------------5-5-5-5-5-7-|

“Ain't got time to make no apology”


|---------------------------|
|---------------------------|
|6-6-6-6-x11-11-11-11-9-9---|
|6-6-6-6-x11-11-11-11-9-9---|
|4-4-4-4-x-9--9--9--9-7-7---|
|---------------------------|


               Chorus 2
|-------------------------------------|
|-------------------------------------|
|6-----6--4-----4--2-----2---2/4-4----|
|4-6-6-4--2-4-4-2--2-2-2-2-2-2/4-4----| 
|4-4-4-4--2-2-2-2--0-2-2-0-2----------|
|--4-4------2-2------0-0---0----------|

 “Solar radiation in the dead of night”


|-------------------------------------|
|-------------------------------------|
|6-----6--4-----4--2-----2---2/4-4----|
|4-6-6-4--2-4-4-2--2-2-2-2-2-2/4-4----| 
|4-4-4-4--2-2-2-2--0-2-2-0-2----------|
|--4-4------2-2------0-0---0----------|

 “Love in the middle of a fire fight”



|-------------------------------|
|-------------------------------|
|-------------------------------|
|3/4-4-4--4-4-4-4-4-4-4-------1-|
|3/4-4-4--4-4-4-4-4-4-4---1-4---|
|1/2-2-2--2-2-2-2-2-2-2-4-------|

   “Honey gotta strike a plan”


|-------------------------------|
|-------------------------------|
|-------------------------------|
|7-7-7-7--7-7-7-7-7-7-7---------|
|7-7-7-7--7-7-7-7-7-7-7-----4-7-|
|5-5-5-5--5-5-5-5-5-5-5-5-7-----|

  “Somebody gotta save my soul”


|-------------------------------|
|-------------------------------|
|-------------------------------|
|2-2-2-2--2-2-2-2-2-2-2---------|
|2-2-2-2--2-2-2-2-2-2-2-----2-4-|
|0-0-0-0--0-0-0-0-0-0-0-2-4-----|

 “Baby, tell ‘em, take my mind”


|--------------------------|
|--------------------------|
|--------------------------|
|6-6-6-6--6-6-6-6—6-6-6----|
|6-6-6-6--6-6-6-6-6-6-6----|
|4-4-4-4--4-4-4-4-4-4-4----|

            “Ow!”

                
                Bridge 1
|---------------------------------------|
|---------------------------------------|
|---------------------------------------|
|11--9----------------------------------| 
|11--9----------------------------------|
|-9--7--9-12-9-9--12-9-12-9-9--7-9-12-9-|

  “And I am the world's forgotten boy”


|----------------------------------------|
|----------------------------------------|
|----------------------------------------|
|11--9-----------------------------------| 
|11--9-----------------------------------|
|-9--7--9-12-9-12b-9--9-7-9-12-9--7-9-12-|

“The one who's searchin', searchin' to destroy”


|-------------------------------------------|
|-------------------------------------------|
|-------------------------------------------|
|11--9--------------------------------------| 
|11--9-------9-9/11-9-----------------------|
|-9--7--9-12-----------12-9-9-7-9--7-9-12-9-|

 “And Honey, I’m the world’s forgotten boy”


|------------------------------------|
|------------------------------------|
|------------------------------------|
|11--9-------------------------------| 
|11--9-------------------------------|
|-9--7--12-9-7-12-9--4-7-9-12--9p7h9-|

“The one who's searchin', only to destroy”


                 Solo 1 (intro)
|------------------------------------------------|
|------------------------------------------------|
|---9-11-11b-11-9----9-11-9-11b-11p9-11-9-----9--|
|11---------------11----------------------11-----|
|------------------------------------------------|
|------------------------------------------------|

|------------------------------12----12-14b16r14p12----12-14-12--|
|14-14-14-14-12----12----12-14----14----------------14-----------|
|---------------13----13-----------------------------------------|
|----------------------------------------------------------------|
|----------------------------------------------------------------|
|----------------------------------------------------------------|


         Verse 3
|-------------------------|
|-------------------------|
|6-6-6-6-6-9--------------|
|6-6-6-6-6-9--7-7-7—7-7-9-|
|4-4-4-4-4-7--7-7-7-7-7-9-|
|-------------5-5-5-5-5-7-|

“Look out honey, 'cause mutant technology”


|---------------------------|
|---------------------------|
|6-6-6-6-x11-11-11-11-9-9---|
|6-6-6-6-x11-11-11-11-9-9---|
|4-4-4-4-x-9--9--9--9-7-7---|
|---------------------------|


|-------------------------|
|-------------------------|
|6-6-6-6-6-9--------------|
|6-6-6-6-6-9--7-7-7—7-7-9-|
|4-4-4-4-4-7--7-7-7-7-7-9-|
|-------------5-5-5-5-5-7-|

“Ain't got time to make no apology”


|---------------------------|
|---------------------------|
|6-6-6-6-x11-11-11-11-9-9---|
|6-6-6-6-x11-11-11-11-9-9---|
|4-4-4-4-x-9--9--9--9-7-7---|
|---------------------------|


               Chorus 3
|-------------------------------------|
|-------------------------------------|
|6-----6--4-----4--2-----2---2/4-4----|
|4-6-6-4--2-4-4-2--2-2-2-2-2-2/4-4----| 
|4-4-4-4--2-2-2-2--0-2-2-0-2----------|
|--4-4------2-2------0-0---0----------|

“Solar radiation in the dead of night”


|-------------------------------------|
|-------------------------------------|
|6-----6--4-----4--2-----2---2/4-4----|
|4-6-6-4--2-4-4-2--2-2-2-2-2-2/4-4----| 
|4-4-4-4--2-2-2-2--0-2-2-0-2----------|
|--4-4------2-2------0-0---0----------|

 “Love in the middle of a fire fight”


|-------------------------------|
|-------------------------------|
|-------------------------------|
|3/4-4-4--4-4-4-4-4-4-4-------1-|
|3/4-4-4--4-4-4-4-4-4-4---1-4---|
|1/2-2-2--2-2-2-2-2-2-2-4-------|

  “Honey gotta strike me blind”


|-------------------------------|
|-------------------------------|
|-------------------------------|
|7-7-7-7--7-7-7-7-7-7-7---------|
|7-7-7-7--7-7-7-7-7-7-7-----4-7-|
|5-5-5-5--5-5-5-5-5-5-5-5-7-----|

  “Somebody gotta save my soul”


|-------------------------------|
|-------------------------------|
|-------------------------------|
|2-2-2-2--2-2-2-2-2-2-2---------|
|2-2-2-2--2-2-2-2-2-2-2-----2-4-|
|0-0-0-0--0-0-0-0-0-0-0-2-4-----|

   “Baby, penetrate my mind”


|--------------------------|
|--------------------------|
|--------------------------|
|6-6-6-6--6-6-6-6—6-6-6----|
|6-6-6-6--6-6-6-6-6-6-6----|
|4-4-4-4--4-4-4-4-4-4-4----|


                Bridge 2
|----------------------------------------|
|----------------------------------------|
|----------------------------------------|
|11--9-----------------------------------| 
|11--9-----------------------------------|
|-9--7--4-7-9-12-9--9-7-4-7--7--4-7-9-12-|

  “And I am the world's forgotten boy”


|--------------------------------|
|--------------------------------|
|--------------------------------|
|11--9---------------------------| 
|11--9---------------------------|
|-9--7--4-7-9-12-9--9-7-9-12-9-7-|

 "The one who's searchin', searchin' to destroy"


                            Solo
|----------------------------------------------9--12----------|
|----------------------------------------9-12--------14p12----|
|-------------------9------------------9-------------------13-|
|11--9-----9-11-11----11-9-11-11--9-11------------------------| 
|11--9--11----------------------------------------------------|
|-9--7--------------------------------------------------------|

         "And Honey, I’m the world’s forgotten boy"


|----------9/12------------------------|
|----12-14------14--12h14-12-12--12-14-|
|-13-----------------------------------|
|--------------------------------------| 
|--------------------------------------|
|--------------------------------------|

 "The one who's searchin', only to destroy"

                      
|-12p11-----12p11-----12p11-----12p11-----12p11-----12p11-----|
|------14p12-----14p12-----14p12-----14p12-----14p12-----14p12|
|-------------------------------------------------------------|
|-------------------------------------------------------------| 
|-------------------------------------------------------------|
|-------------------------------------------------------------|

|-12p11-----12p11-----12p11-----------------------------------|
|------14p12-----14p12-----14p12-10p9-------------------------|
|-------------------------------------11p9--------------------|
|------------------------------------------9p8----------------| 
|----------------------------------------------11p9-----------|
|---------------------------------------------------9~--------|


  Continue soloing untill the end and have fun!



Related for Search And Destroy tab