Song name
# A B C D E F G H I J K L M N O P Q R S T U V W X Y Z

Iggy Pop - Home tab

Home by Iggy Pop
Brick by Brick

e-------------------------------------|
B-------------------------------------|
G-------------------------------------|
D-7-7-7-2---9-14-9-14-14-9-14-9-14-14-|
A-7-7-7-2-----------------------------|
E-5-5-5-0-----------------------------|

VERSE
e-------------------------------|
B-------------------------------|
G-------------------------------|
D-0-7-0-7-7-0-7-0-7-7--7-7-7-2--|
A-0-7-0-7-7-0-7-0-7-7--7-7-7-2--|
E-0-5-0-5-5-0-5-0-5-5--5-5-5-0--|
  x x x x x x x x x 

CHORUS
e----------------|
B----------------|
G------7----9----|
D-7-2--7-2--9-2--|
A-7-2--5-2--7-2--|
E-5-0----0----0--|

That's about it
Any corrections please comment
Thanks
Tap to rate this tab
# A B C D E F G H I J K L M N O P Q R S T U V W X Y Z