Song name
# A B C D E F G H I J K L M N O P Q R S T U V W X Y Z

Iggy Pop - I Wana Be Your Dog tab

Tis is curtasy of Daniel White who showed me this tab.

Egghouse

----------------------------------|
----------------------------------|
----------------------------------|
----------------------------------|
5-5-5-5--4-4-4-4--2-2-2-2-2-2-2-2-|
3-3-3-3--2-2-2-2--0-0-0-0-0-0-0-0-|


----------------------------------|
----------------------------------|
----------------------------------|
----------------------------------|
5-5-5-5--4-4-4-4--2-2-2-2-2-2-2-2-|
3-3-3-3--2-2-2-2--0-0-0-0-0-0-0-0-|


----------------------------------|
----------------------------------|
----------------------------------|
----------------------------------|
5-5-5-5--4-4-4-4--2-2-2-2-2-2-2-2-|
3-3-3-3--2-2-2-2--0-0-0-0-0-0-0-0-|


Listen to the song and play in time to it.

Sean is cool
Tap to rate this tab
# A B C D E F G H I J K L M N O P Q R S T U V W X Y Z