Guitaretab - guitar tabs
Song name
# A B C D E F G H I J K L M N O P Q R S T U V W X Y Z

Iglesias Enrique - Miente tab

Es una rola muy buena y facil. 
la afinacion es normal EADGBe

Main Riff
  Bm      Bmsus9   F#m     Emsus13
|-2--------2--------2-------0------|
|-3--------2--------2-------2------|
|-4--------4--------2-------0------|
|-4--------4--------4-------2------|
|-2--------2--------4-------2------|
|-2--------2--------2-------0------|


Verso 1                    
e|---------0-------------|
B|------2-----0----------|
G|----4---------4--------|
D|--4--------------------|
A|-----------------------|
E|-----------------------|

Verso2
e|-------------2-----|
B|---------------0---|
G|--4---2----------0-|
D|---------4---------|
A|-------------------|
E|-------------------|

Verso 3          
e|---------0-----|
B|-----------0---|
G|------4------4-|
D|----4----------|
A|--2------------|
E|---------------|
[ Tab from: http://www.guitaretab.com/i/iglesias-enrique/8654.html ]
Chorus
|-3--------2------|
|-3--------2------|
|-4--------2------|
|-5--------4------|
|-5--------4------|
|-3--------2------|

Riff2
fast picking
|------------------------------|
|-3333333333333333335555555555-|
|-4444444444444444444444444444-|
|-4444444444444444444444444444-|
|------------------------------|
|------------------------------|
|------------------------------|

Verso 4
e|----10---10---10-|
B|--0----0----0----|
G|-----------------|
D|-----------------|
A|-----------------|
E|-----------------|

Outro
Gt1
|-7~-------|
|-----10~--|
|----------|
|----------|
|----------|
|----------|

Gt 2
|----------5~-|
|-----3-------|
|--6-----6----|
|-------------|
|-------------|
|-------------|

Orden:
Main riff X4
(Verso1 Verso2) x2
Verso 3
Coro X4
Riff 2 X2
Verso 2 X3
Verso 4 X3
Main riff X2
Coro X4
Outro
Related for Miente tab