Guitaretab - guitar tabs
Song name
# A B C D E F G H I J K L M N O P Q R S T U V W X Y Z

Ignite - Fear Is Our Tradition tab

FEAR IS OUR TRADITION

IGNITE
next to afi, nofx and rise against these are the best

This song is amazing and noone had tabbed it so I just had to
even though this is my first tab ever
Tabbed by Shaun Hurrell

Tuning: drop d

There's only 1 guitar but the riffs are added over.

Guitar 1:

e-000-777-000-000-000-00-0000-0--77777p0-|
b-555-555-555-888-777-55-0000-5--55555---|
g------------------------4444-5----------|
d----------------------------------------| x4
a----------------------------------------|
D----------------------------------------|

Guitar 2:
e--------------------------------|
b--------------------------------|
g----------------------55555555--|
d-222222-222222-000000-55555555--| x2
a-223322-222222-000000-33333333--|
D\222222-222222-000000-----------|

e0==>----------------------------|
b--------------------------------|
g-99999999999999999999\-55/-77---|
d-99999999999999999999\-55/-77---|
a-77777777777777777777\-33/-55---|
D--------------------------------|
  pm.................   ..  ..

e---------------------------------------------------|
b---------------------------------------------------|
g-99999999------------------------------------------|
d-99999999-10-10-10-10p9-9-9--9p7-9p7-9p7-9p7-9p7-9-|
a-77777777-7--7--7--7--7-7-7--7---7---7---7---7---7-|
D---------------------------------------------------|
  pm.............  .........

e---00--0--0--0----------------------|let the open notes
b---00--0--0--0----ring--------------|
g---00--0--0--0----------------------|
d-10-10-10-10-10\--777777\-----------|
a-10-10-10-10-10\--777777\-----------|
D-10-10-10-10-10\--777777\-----------|

could have nicked this riff from idlewild (modern way of letting go)
but i dont think they did:

e-------------------------------------|
b-------------------------------------|
g-------------------------------------|
d-0h22222-000-5555-000-0h2222-000-555-|
a-0h22222-000-5555-000-0h2222-000-555-|
D-0h22222-000-5555-000-0h2222-000-555-|

"Fear is our tradition..."

e------------------------------------------|
b------------------------------------------|
g------------------------------------------|
d-0h22222-000-5555-000-0h2222-000-5555/777-|
a-0h22222-000-5555-000-0h2222-000-5555/777-|
D-0h22222-000-5555-000-0h2222-000-5555/777-|

e---------------------------------------------------------|
b---------------------------------------------------------|
g---------------------------------------------------------|
d-0h22222-000-5555-000--10-12-12-12-12--12-12-12-12-12-12-|
a-0h22222-000-5555-000--10-10-10-10-10--12-12-12-12-12-12-|
D-0h22222-000-5555-000--10-10-10-10-10--12-12-12-12-12-12-|

"So we'll find our own way out.."

Guitar 1:
[ Tab from: http://www.guitaretab.com/i/ignite/102255.html ]
e--0-0------0000000-|
b--0-0------0000000-|
g-9-9--7-7--5-5-5-5-|
d-9-9--7-7--5-5-5-5-|
a-7-7--5-5--3-3-3-3-|
D-xxx--0-0--xxxxxxx-|

e--0-0------0000000--|
b--0-0------0000000--|
g-9-9--12---5-5-5-5--|
d-9-9--x----5-5-5-5--|
a7-7---10---3-3-3-3\-|
D-xxx--0----xxxxxxx\-|

(on second verse) Guitar 2:

e----------------------------0--|
b----------------------------0--|
g---0----0----0----0----0----0--|
d--5----5----5----5----5----5---| x2
e-7----5----3----3----3----3----|
D-------------------------------|

Then again:
Intro riff x2
Verse riff
Pre-chorus
Chorus

Bridge:

Guitar 1

e---00-----------000--00-0--0-----------0-|
b-0-55-7b8r7p5p0-000-----0--0-----------5-|
g-------------------222--0--2---444-222---|
d-----------------------------------------|
a-----------------------------------------|
D-----------------------------------------|
                                ...

e---00-----------000--00-0--0---------------0-|
b-0-55-7b8r7p5p0-000-----0--0-----------------|
g-------------------222--0--2---444 6b7r6p4p2-|
d---------------------------------------------|
a---------------------------------------------|
D---------------------------------------------|
                                ...

Guitar 2

e----0----0----0----0--0----|
b----0----0----0----0--0----|
g----0----0----0----0--0----|
d-555--555--222---222222----| x3
a-555--333--222---222222----|
D-555--333--222---222222----|
               pm ..

e----0----0----0--0->
b----0----0----0--0->
g----0----0----0--0->
d-555--555--222---0-> x2
a-555--333--222---0->
D-555--333--222---0->

Guitar 1:
big pickslide!

e---------------------------------|
b---------------------------------|
g---------------------------------|
d---////////============>------5--|
a--////////=============>------5--|
D-////////==============>------5--|

Guitar 2:

e------------------------------------------|
b------------------------------------------|
g------------------------------------------|
d-0h22222-000-5555-000-0h2222-000-5555/777-|
a-0h22222-000-5555-000-0h2222-000-5555/777-|
D-0h22222-000-5555-000-0h2222-000-5555/777-|
pm........................................

e-------------------------------------|
b-------------------------------------|
g-------------------------------------|
d-0h22222-000-5555-000-0h2222-000-555-|
a-0h22222-000-5555-000-0h2222-000-555-|
D-0h22222-000-5555-000-0h2222-000-555-|
pm...................................

Then repeat pre-chorus, chorus and the bridge and over the top riffs!

End on let it ring nicely

e-0------0-------------------12*------------| *natural harmonic
b-0-----------------------------------------|
g-0-----------------------------------------|
d-2-----------------------------------------|
a-2-----------------------------------------|
D-2-----------------------------------------|
Related for Fear Is Our Tradition tab
Advertisement will be closed in 10 seconds