Song name
# A B C D E F G H I J K L M N O P Q R S T U V W X Y Z

Ignite - In My Time tab

IN MY TIME - Ignite
------------------------------------------------------------------------

By: Jeff Fulton  jeff_fulton@hotmail.com

Verse
e|--------------------------------------------------------------------|
B|--------------------------------------------------------------------|
G|-9--5---------------------------------------------------------------|
D|-9--5--5------------------------------------------------------------|
A|-7--3--5------------------------------------------------------------|
E|-------3------------------------------------------------------------|

Break
e|---------------------------------------------------------------------|
B|---------------------------------------------------------------------|
G|-----------------9------9--------------------------------------------|
D|-7--9--12----2---9--2---9--------------------------------------------|
A|-7--9--12----2---7--2---7--------------------------------------------|
E|-5--7--10----0------0------------------------------------------------|
Tap to rate this tab
# A B C D E F G H I J K L M N O P Q R S T U V W X Y Z