Song name
# A B C D E F G H I J K L M N O P Q R S T U V W X Y Z

Ignite - Live For Better Days tab

I think this song is played in power chords...use standard tuning
Find the rhytm yourself :D

Keep rockin'

Verse 1

 Save it for tommorow...
E----------------------------------|
B----------------------------------|
G--6-6-6-6-----------------6-6-6-6-|
D--6-6-6-6-6-6-6-6-4-4-4-4-6-6-6-6-|
A--4-4-4-4-6-6-6-6-4-4-4-4-4-4-4-4-|
E----------4-4-4-4-2-2-2-2---------| 2X

Chorus

 So I say goodnight...
E----------------------------------|
B----------------------------------|
G--6-6-6-6---------3-3-3-3---------|
D--6-6-6-6-4-4-4-4-3-3-3-3-6-6-6-6-|
A--4-4-4-4-4-4-4-4-1-1-1-1-6-6-6-6-|
E----------2-2-2-2---------4-4-4-4-| 2X

Some shit
E----------------------------------|
B----------------------------------|
G--6-6-6-6---------6-6-6-6---------|
D--6-6-6-6-4-4-4-4-6-6-6-6-4-4-4-4-|
A--4-4-4-4-4-4-4-4-4-4-4-4-4-4-4-4-|
E----------2-2-2-2---------2-2-2-2-|

Verse 2

 Last night was wrong, it's morning...
E----------------------------------|
B----------------------------------|
G--6-6-6-6-----------------6-6-6-6-|
D--6-6-6-6-6-6-6-6-4-4-4-4-6-6-6-6-|
A--4-4-4-4-6-6-6-6-4-4-4-4-4-4-4-4-|
E----------4-4-4-4-2-2-2-2---------| 2X

Chorus

 So I say goodnight...
E----------------------------------|
B----------------------------------|
G--6-6-6-6---------3-3-3-3---------|
D--6-6-6-6-4-4-4-4-3-3-3-3-6-6-6-6-|
A--4-4-4-4-4-4-4-4-1-1-1-1-6-6-6-6-|
E----------2-2-2-2---------4-4-4-4-| 2X

 Oh, I need to end this violence...
E--------------------------|
B--------------------------|
G--3-3-3-3-----------------|
D--3-3-3-3-6-6-6-6-4-4-4-4-|
A--1-1-1-1-6-6-6-6-4-4-4-4-|
E----------4-4-4-4-2-2-2-2-| 3X

 Silence in me...
E------------------|
B------------------|
G--6-6-6-6---------|
D--6-6-6-6-4-4-4-4-|
A--4-4-4-4-4-4-4-4-|
E----------2-2-2-2-| 2X

Chorus

 So I say goodnight...
E----------------------------------|
B----------------------------------|
G--6-6-6-6---------3-3-3-3---------|
D--6-6-6-6-4-4-4-4-3-3-3-3-6-6-6-6-|
A--4-4-4-4-4-4-4-4-1-1-1-1-6-6-6-6-|
E----------2-2-2-2---------4-4-4-4-| 2X

The end :D

Any questions? mail me: metal_is_my_life@email.si
Tap to rate this tab
# A B C D E F G H I J K L M N O P Q R S T U V W X Y Z