Song name
# A B C D E F G H I J K L M N O P Q R S T U V W X Y Z

Ikara Colt - Rudd tab

iKARA cOLT- 
Song: Rudd
Album: Chat And Business

         'can't cross the road..'   'too many things
e--------------------------------------------------
B--------------------------------------------------
G------------------------11------------------------
D--8---------5-----------12----------8-------------
A--8---------5-----------12----------8-------------
E--6---------3-----------10----------6-------------


  'are watching me'
e------------------
B------------------
G------------------
D--5---------------
A--5---------------
E--3---------------
Tap to rate this tab
# A B C D E F G H I J K L M N O P Q R S T U V W X Y Z