Song name
# A B C D E F G H I J K L M N O P Q R S T U V W X Y Z

Ikara Colt - One Note tab

Help us improve GuitareTab! Take a short survey!
band: ikara colt
song: one note
album: chat and business

main riff
e-----------------|
B-----------------|
G-------7---------|
D-------7---------|
A-5-5-5-5--5-5-5--|
E-----------------|

This is the main riff part.


Chorus:
e--------------------------------------------------|
B--------------------------------------------------|
G-8-8-8-8--8-8-------7-----------------7-----------|
D--------------------7-----------------7-----------|
A----------------5-5-5--5-5-5--5-5-5-5-5---5-5-5---|
E--------------------------------------------------|


Post-Chorus: ("i plead againts stage..")
A-5-5-5--5-5-5--5-5-5-5-5---5-5-5---
Related for One Note tab