Guitaretab - guitar tabs
Song name
# A B C D E F G H I J K L M N O P Q R S T U V W X Y Z

Ikara Colt - Belgravia tab

band: ikara colt
song: belgravia
album: chat and business

verse
e-----3---0--|
B-------4----|
G-2-2--------|
D-2-2--------|
A-0-0--------|
E------------| x4

then:
E------------|
B------------|
G-3-3-3-3----|
D-3-3-3-3----|
A-1-1-1-1----|
E------------|


bass fill: (after first time through verse)
E----------------------|
B----------------------|
G----------------------|
D----------------------|
A-0-0-0-0-0-1-1-1-0-0--|
E----------------------|


Guitar fill: (after second time through verse)
A5 C5 A5 C#5
E--------------------|
B--------------------|
G-2--/5-5---2--/6-6--|
D-2--/5-5---2--/6-6--|
A-0--/3-3---0--/4-4--|
E--------------------| x4
[ Tab from: http://www.guitaretab.com/i/ikara-colt/52982.html ]
C5 C#5 C5 D#5 C5 C#5 C5
E---------------------------|
B---------------------------|
G-5--/6-6-5--/8-8-5--/6-6-5-|
D-5--/6-6-5--/8-8-5--/6-6-5-|
A-3--/4-4-3--/6-6-3--/4-4-3-|
E---------------------------|


Solo: (After third time through verse, begins behind: "just a seat in a passing phase")
E-----------------------|
B-----------------------|
G-2-2--2--2-2--2-2b4b2--|
D-2-2--2--2-2--2--------|
A-0-0--0--0-0--0--------|
E-----------------------| x3


E-5-5-5-5-5-5--5-5-5-8--8-8-8--|
B-5-5-5-5-5-5--5-5-5-5--5-5-5--|
G------------------------------|
D------------------------------|
A------------------------------|
E------------------------------| x2

E-------------------5-5-5-5-5-5--5-5-5-8--8-8-8-|
B-------------------5-5-5-5-5-5--5-5-5-5--5-5-5-|
G-2-2--2--2-2--2--------------------------------|
D-2-2--2--2-2--2--------------------------------|
A-0-0--0--0-0--0--------------------------------|
E-----------------------------------------------|
Related for Belgravia tab
Belgravia chords by Ikara Colt