Guitaretab - guitar tabs
Song name
# A B C D E F G H I J K L M N O P Q R S T U V W X Y Z

Ikara Colt - Sink Venice tab

band: ikara colt
song: sink venice
album: chat an business



Dropped D tuning.


BASS intro:
G|-------------------------------------------------------|
D|-0-0-3-0-0-0-2-0-0-0-3-0-0-0-2-0--etc.-----------------|
A|-------------------------------------------------------|
D|-------------------------------------------------------|

Chorus: "Sink Venice!"
e|-------------------------------------------------------|
B|-------------------------------------------------------|
G|-------------------------------------------------------|
D|-2--2-2-2-2--4--4-4-4-4--2--2-2-2-2--4--4-4-4-4--------|
A|-0--0-0-0-0--2--2-2-2-2--0--0-0-0-0--2--2-2-2-2--------|
D|-------------------------------------------------------|x2

Verse:
e|-------------------------------------------------------|
B|-------------------------------------------------------|
G|-------------------------------------------------------|
D|-7--7------6--5--7-7-----7--7------6--5--7-7-----------|
A|------5--5-------5-5----------5--5-------5-5-----------|
D|-----------------0-0---------------------0-0-----------|x2

Chorus x1
Verse x1
Chorus x1
[ Tab from: http://www.guitaretab.com/i/ikara-colt/52983.html ]
Interlude: "Look look..."
e|--------------|----------------------------------------|
B|-8------------|-----------------8----------------------|
G|-7------------|-----------------7----------------------|
D|-5-(let ring)-|-7-7-7-7-7-7-7-7-5-(let ring)-----------|
A|-5------------|-5-5-5-5-5-5-5-5-5--------------x2------|
D|--------------|----------------------------------------|

e|-------------------------------------------------------|
B|-------------------------------------------------------|
G|-------------------------------------------------------|
D|-7-7---------7-7---------7-7---------7-7---------------|
A|-5-5---------5-5---------5-5---------5-5---------------|
D|-0-0---------0-0---------0-0---------0-0---------------|

Verse x1
Chorus x1

Outro:
e|--------------|----------------------------------------|
B|-8------------|-----------------8----------------------|
G|-7------------|-----------------7----------------------|
D|-5-(let ring)-|-7-7-7-7-7-7-7-7-5-(let ring)-----------|
A|-5------------|-5-5-5-5-5-5-5-5-5-----------------x3---|
D|--------------|----------------------------------------|

e|-------------------------------------------------------|
B|-------------------------------------------------------|
G|-------------------------------------------------------|
D|-7-7-7-7-7-7-7-7-7-7-7-7-7---r-------------------------|
A|-5-5-5-5-5-5-5-5-5-5-5-5-5---r-------------------------|
D|-------------------------------------------------------|x4
Related for Sink Venice tab