Guitaretab - guitar tabs
Song name
# A B C D E F G H I J K L M N O P Q R S T U V W X Y Z

Ikara Colt - At The Lodge tab

band: ikara colt
song: at the lodge
album: chat and business

Dropped D tuning.


Intro: (Just bass)    When guitar comes in:
G|------------------------|----------------------|
D|------------------------|-7-7----7-7-----------|
A|-3----10----5-----------|-5-5----5-5-----------|
D|------------------------|-0-0----0-0--etc.-----|

Verses:
e|-----------------------------------------------|
B|-----------------------------------------------|
G|-5-5--5-2-2--2--------5-5--5-2-2--2------------|
D|-----------------------------------------------|
A|---------------5-5------------------5-5--------|
D|---------------0-0------------------0-0--------|
[ Tab from: http://www.guitaretab.com/i/ikara-colt/52985.html ]
Chorus:
e|-----------------------------------------------|
B|-----------------------------------------------|
G|-----------------------------------------------|
D|-5-5--5-3-3--3--------5-5--5-3-3--3------------|
A|---------------5-5------------------5-5--------|
D|---------------0-0------------------0-0--------|

Interlude: ("I hear now...")
e|--------------------------------|
B|--------------------------------|
G|-5--7-7-7-5-7-7-7-5-------------|
D|-x--x-x-x-x-x-x-x-x-------------|
A|-5--5-5-5-5-5-5-5-5-------------|
D|-0--0-0-0-0-0-0-0-0-etc.--------|

"At the lodge!"
e|-------------------------|
B|----6--------------------|
G|-5--7--------------------|
D|-x--x--------------------|
A|-5--5-(let ring)---------|
D|-0--0--------------------|

outro: chorus
Related for At The Lodge tab
At The Lodge chords by Ikara Colt