Song name
# A B C D E F G H I J K L M N O P Q R S T U V W X Y Z

Ikara Colt - May B 1 Day tab

band: ikara colt
song: may b 1 day
album: chat and business

Here we go, boys and girls. There's a couple of versions of this that have been 
but the riffs stay the same. You'll have to play around with it.
E-------------------------------------------------|
B-------------------------------------------------|
G-------------------------------------------------|
D-------------------------------------------------|
A-----0-2-----0-2-----0-2-----0-2-----------------|
E-2-2-----2-2-----2-2-----2-2-----0-0-0-0-0-0-0-0-|

repeat that a bunch. And play fast.
The chord bit is:
F#5 E5 A5

And here's the guitar fill bit:

E----------------------|
B----------------------|
G-2-2-0------------0---|
D-------2--2-2-2-2---4-|
A----------------------|
E----------------------|
Tap to rate this tab
# A B C D E F G H I J K L M N O P Q R S T U V W X Y Z