Song name
# A B C D E F G H I J K L M N O P Q R S T U V W X Y Z

Il Divo - Por Ti Sere chords

Highlighted       Show chord diagrams
Entrada: D#

           D#    G#            D#
Cuando me vi desnudo y sin aliento
           D#     G#           Bb Bbsus4 Bb
Arando un mar desierto y sin amor
           Cm        G#           D#      G#
Cuando pensé que mi alma había muerto
          D#    Bb           D#
Llegaste tú como la luz del sol


          Cm       G#            D#     Bb
Por ti seré, más fuerte que el destino
          Cm     G#              D#       Bb
Por ti seré, tu héroe ante el dolor
        Cm   G#           D#    G#
Yo sin ti estaba tan perdido
          D#   Bb           D#
Por ti seré mejor de lo que soy
                                                                                      
          F    Bb    F            Dm    Bb                C             Dm   
e|--------5~----------------------5-8~----8/10-8-5-5-6h-5p--------10-12-13--|
B|------6---6-8-6-6-------6~--5-6------/6------------------8--/13~----------|
G|-/5-5--------------7~-5---------------------------------------------------|
D|--------------------------------------------------------------------------|
     
    Bb      F             Bb      Dm    C                      F
e|-------12-10--------------------------5~~--8--8-5------------------|
B|--11~-----------13-11-13-10~~---6-5-6---------------8--6-/8--6~~~~-|
G|-------------------------------------------------------------------|
D|-------------------------------------------------------------------|


          Dm      Bb             F      C
Por ti seré, más fuerte que el destino
          Dm     Bb             F       C
Por ti seré, tu héroe ante el dolor
        Dm   Bb          F      Bb
Yo sin ti estaba tan perdido
          F    C           F
Por ti seré mejor de lo que soy


          D#m      B            F#       C#
Por ti seré, más fuerte que el destino
          D#m     B              F#        C#
Por ti seré, tu héroe ante el dolor
        D#m   B          F#      B
Yo sin ti estaba tan perdido
          F#    B           F#
Por ti seré mejor de lo que soy
          F#    B           F#
Por ti seré mejor de lo que soy
Tap to rate this tab
# A B C D E F G H I J K L M N O P Q R S T U V W X Y Z