Song name
# A B C D E F G H I J K L M N O P Q R S T U V W X Y Z

Il Divo - Every Time I Look At You chords

Highlighted       Show chord diagrams
Introducción:   

   D#           G#              Fm                Bbsus4    Bb
e|----------------------4-3--------------4-3-----------------------|
B|-----6-9-8----------------6-4--------------6-4-4-3h4p3----4-4----|
G|-----------5--------5----------------1---------------------------|
D|---8--------------6----------------3-----------------------------|
A|-6--------------6----------------3-------------------------------|
E|--------------4----------------1---------------------------------|

   D#      G#       Fm       Cm Bb  D#
e|---------------------------3--1--------|
B|-4s6-9-8--------------------------4~~--|
G|---------5~~~~----------1--------------|
D|----------------------3----------------|
A|--------------------3------------------|
B|------------------1--------------------|

D#                    Bb    Cm
I used to think that i was strong 
Fm       G#          Bb
i realise now i was wrong 
D#                         Gm
cause everytime i see your face 
   Fm     G#                Bb  
my mind becomes an empty space 
D#                       G#
and with you lying next to me 
Fm          Bb             D#
feels like i can hardly breathe 

D#         G#
I close my eyes 
Fm             Bb          D#
the moment i surrender to you 
            G#
Let love be blind 
Fm           D# Bb      Cm
innocent and tenderly true 
           Gm  
So lead me through tonite 
G#                  D#
but please turn out the light 
          G#m              D#   Bb D#
Cause i'm lost everytime i look at you 

 D#           Gm     Fm        Bb  D#
|-------3-1------------------3-1---------|
|-----4-----4---------------------4-4~~~~|
|---3----------3~~~~-------1-------------|
|-1----------------------3---------------|
|----------------------3-----------------|
|--------------------1-------------------|

D#         Fm      Gm       G#  Cm
And in the morning when you go 
Fm      Gm    G#  Bb
wake me gently so I'll know 
D#                        Gm
That loving you was not a dream 
   G#                      Bb               D#
and whisper softly what it means to be with me 
            Fm    Gm     G#
Then every moment we're apart 
Fm             Bb       D#
will be a lifetime to my heart 
           
D#         G#   Fm
I close my eye - s
               Bb         D#
the moment i surrender to you 
            G# D# Fm
Let love be bl -  ind
             Bb       Cm
innocent and tenderly true 
                   Gm
So lead me through tonite 
    G#                   D#
but please turn out the light 
          G#m              Bb      Cm
Cause I'm lost everytime i look at you 
Fm               G#m  Bb  D#   
lost everytime i look at  you
Tap to rate this tab
# A B C D E F G H I J K L M N O P Q R S T U V W X Y Z